  0
SECTION
  2
HEADER
  9
$INSBASE
 10
0.0
20
0.0
  9
$REGENMODE
 70
     1
  9
$DRAGMODE
 70
     1
  9
$DIMTAD
 70
     1
  9
$EXTMIN
 10
-315.000000
 20
-445.500000
 30
 0.0
  9
$EXTMAX
 10
315.000000
 20
445.500000
 30
 0.0
  9
$LUPREC
 70
    3
  9
$AUPREC
 70
    3
  9
$LTSCALE
 40
13.125000
  0
ENDSEC
  0
SECTION
  2
TABLES
  0
TABLE
  2
LTYPE
 70
     6
  0
LTYPE
  2
CONTINUOUS
 70
    64
  3
8;
 72
    65
 73
     0
 40
0.0
  0
LTYPE
  2
DASHED2
 70
    64
  3
_ _ _ _ _ _ _ _ _ _ _ _ _ _ _ _ _ _ _ _ _ _ 
 72
    65
 73
     2
 40
0.5
 49
0.25
 49
-0.25
  0
LTYPE
  2
DASHED
 70
    64
  3
__ __ __ __ __ __ __ __ __ __ __ __ __ __ __
 72
    65
 73
     2
 40
0.75
 49
0.5
 49
-0.25
  0
LTYPE
  2
DASHEDX2
 70
    64
  3
____  ____  ____  ____  ____  ____  ____  __
 72
    65
 73
     2
 40
1.5
 49
1.0
 49
-0.5
  0
LTYPE
  2
HIDDENX2
 70
    64
  3
____ ____ ____ ____ ____ ____ ____ ____ ____
 72
    65
 73
     2
 40
0.625
 49
0.5
 49
-0.125
  0
LTYPE
  2
CENTER
 70
    64
  3
____ _ ____ _ ____ _ ____ _ ____ _ ____ _ __
 72
    65
 73
     4
 40
2.0
 49
1.25
 49
-0.25
 49
0.25
 49
-0.25
  0
LTYPE
  2
CENTERX2
 70
    64
  3
________  __  ________  __  ________  __  __
 72
    65
 73
     4
 40
4.0
 49
2.5
 49
-0.5
 49
0.5
 49
-0.5
  0
LTYPE
  2
PHANTOM2
 70
    64
  3
___ _ _ ___ _ _ ___ _ _ ___ _ _ ___ _ _ ___ 
 72
    65
 73
     6
 40
1.25
 49
0.625
 49
-0.125
 49
0.125
 49
-0.125
 49
0.125
 49
-0.125
  0
LTYPE
  2
PHANTOM
 70
    64
  3
_____ _ _ _____ _ _ _____ _ _ _____ _ _ ____
 72
    65
 73
     6
 40
2.5
 49
1.25
 49
-0.25
 49
0.25
 49
-0.25
 49
0.25
 49
-0.25
  0
ENDTAB
  0
TABLE
  2
LAYER
 70
   255
  0
LAYER
  2
0
 70
    64
 62
     7
  6
CONTINUOUS
  0
LAYER
  2
1
 70
    64
 62
     7
  6
CONTINUOUS
  0
LAYER
  2
2
 70
    64
 62
     7
  6
CONTINUOUS
  0
LAYER
  2
3
 70
    64
 62
     7
  6
CONTINUOUS
  0
LAYER
  2
4
 70
    64
 62
     7
  6
CONTINUOUS
  0
LAYER
  2
5
 70
    64
 62
     7
  6
CONTINUOUS
  0
LAYER
  2
6
 70
    64
 62
     7
  6
CONTINUOUS
  0
LAYER
  2
7
 70
    64
 62
     7
  6
CONTINUOUS
  0
LAYER
  2
8
 70
    64
 62
     7
  6
CONTINUOUS
  0
LAYER
  2
9
 70
    64
 62
     7
  6
CONTINUOUS
  0
LAYER
  2
10
 70
    64
 62
     7
  6
CONTINUOUS
  0
LAYER
  2
11
 70
    64
 62
     7
  6
CONTINUOUS
  0
LAYER
  2
12
 70
    64
 62
     7
  6
CONTINUOUS
  0
LAYER
  2
13
 70
    64
 62
     7
  6
CONTINUOUS
  0
LAYER
  2
14
 70
    64
 62
     7
  6
CONTINUOUS
  0
LAYER
  2
15
 70
    64
 62
     7
  6
CONTINUOUS
  0
LAYER
  2
16
 70
    64
 62
     7
  6
CONTINUOUS
  0
LAYER
  2
17
 70
    64
 62
     7
  6
CONTINUOUS
  0
LAYER
  2
18
 70
    64
 62
     7
  6
CONTINUOUS
  0
LAYER
  2
19
 70
    64
 62
     7
  6
CONTINUOUS
  0
LAYER
  2
20
 70
    64
 62
     7
  6
CONTINUOUS
  0
LAYER
  2
21
 70
    64
 62
     7
  6
CONTINUOUS
  0
LAYER
  2
22
 70
    64
 62
     7
  6
CONTINUOUS
  0
LAYER
  2
23
 70
    64
 62
     7
  6
CONTINUOUS
  0
LAYER
  2
24
 70
    64
 62
     7
  6
CONTINUOUS
  0
LAYER
  2
25
 70
    64
 62
     7
  6
CONTINUOUS
  0
LAYER
  2
26
 70
    64
 62
     7
  6
CONTINUOUS
  0
LAYER
  2
27
 70
    64
 62
     7
  6
CONTINUOUS
  0
LAYER
  2
28
 70
    64
 62
     7
  6
CONTINUOUS
  0
LAYER
  2
29
 70
    64
 62
     7
  6
CONTINUOUS
  0
LAYER
  2
30
 70
    64
 62
     7
  6
CONTINUOUS
  0
LAYER
  2
31
 70
    64
 62
     7
  6
CONTINUOUS
  0
LAYER
  2
32
 70
    64
 62
     7
  6
CONTINUOUS
  0
LAYER
  2
33
 70
    64
 62
     7
  6
CONTINUOUS
  0
LAYER
  2
34
 70
    64
 62
     7
  6
CONTINUOUS
  0
LAYER
  2
35
 70
    64
 62
     7
  6
CONTINUOUS
  0
LAYER
  2
36
 70
    64
 62
     7
  6
CONTINUOUS
  0
LAYER
  2
37
 70
    64
 62
     7
  6
CONTINUOUS
  0
LAYER
  2
38
 70
    64
 62
     7
  6
CONTINUOUS
  0
LAYER
  2
39
 70
    64
 62
     7
  6
CONTINUOUS
  0
LAYER
  2
40
 70
    64
 62
     7
  6
CONTINUOUS
  0
LAYER
  2
41
 70
    64
 62
     7
  6
CONTINUOUS
  0
LAYER
  2
42
 70
    64
 62
     7
  6
CONTINUOUS
  0
LAYER
  2
43
 70
    64
 62
     7
  6
CONTINUOUS
  0
LAYER
  2
44
 70
    64
 62
     7
  6
CONTINUOUS
  0
LAYER
  2
45
 70
    64
 62
     7
  6
CONTINUOUS
  0
LAYER
  2
46
 70
    64
 62
     7
  6
CONTINUOUS
  0
LAYER
  2
47
 70
    64
 62
     7
  6
CONTINUOUS
  0
LAYER
  2
48
 70
    64
 62
     7
  6
CONTINUOUS
  0
LAYER
  2
49
 70
    64
 62
     7
  6
CONTINUOUS
  0
LAYER
  2
50
 70
    64
 62
     7
  6
CONTINUOUS
  0
LAYER
  2
51
 70
    64
 62
     7
  6
CONTINUOUS
  0
LAYER
  2
52
 70
    64
 62
     7
  6
CONTINUOUS
  0
LAYER
  2
53
 70
    64
 62
     7
  6
CONTINUOUS
  0
LAYER
  2
54
 70
    64
 62
     7
  6
CONTINUOUS
  0
LAYER
  2
55
 70
    64
 62
     7
  6
CONTINUOUS
  0
LAYER
  2
56
 70
    64
 62
     7
  6
CONTINUOUS
  0
LAYER
  2
57
 70
    64
 62
     7
  6
CONTINUOUS
  0
LAYER
  2
58
 70
    64
 62
     7
  6
CONTINUOUS
  0
LAYER
  2
59
 70
    64
 62
     7
  6
CONTINUOUS
  0
LAYER
  2
60
 70
    64
 62
     7
  6
CONTINUOUS
  0
LAYER
  2
61
 70
    64
 62
     7
  6
CONTINUOUS
  0
LAYER
  2
62
 70
    64
 62
     7
  6
CONTINUOUS
  0
LAYER
  2
63
 70
    64
 62
     7
  6
CONTINUOUS
  0
LAYER
  2
64
 70
    64
 62
     7
  6
CONTINUOUS
  0
LAYER
  2
65
 70
    64
 62
     7
  6
CONTINUOUS
  0
LAYER
  2
66
 70
    64
 62
     7
  6
CONTINUOUS
  0
LAYER
  2
67
 70
    64
 62
     7
  6
CONTINUOUS
  0
LAYER
  2
68
 70
    64
 62
     7
  6
CONTINUOUS
  0
LAYER
  2
69
 70
    64
 62
     7
  6
CONTINUOUS
  0
LAYER
  2
70
 70
    64
 62
     7
  6
CONTINUOUS
  0
LAYER
  2
71
 70
    64
 62
     7
  6
CONTINUOUS
  0
LAYER
  2
72
 70
    64
 62
     7
  6
CONTINUOUS
  0
LAYER
  2
73
 70
    64
 62
     7
  6
CONTINUOUS
  0
LAYER
  2
74
 70
    64
 62
     7
  6
CONTINUOUS
  0
LAYER
  2
75
 70
    64
 62
     7
  6
CONTINUOUS
  0
LAYER
  2
76
 70
    64
 62
     7
  6
CONTINUOUS
  0
LAYER
  2
77
 70
    64
 62
     7
  6
CONTINUOUS
  0
LAYER
  2
78
 70
    64
 62
     7
  6
CONTINUOUS
  0
LAYER
  2
79
 70
    64
 62
     7
  6
CONTINUOUS
  0
LAYER
  2
80
 70
    64
 62
     7
  6
CONTINUOUS
  0
LAYER
  2
81
 70
    64
 62
     7
  6
CONTINUOUS
  0
LAYER
  2
82
 70
    64
 62
     7
  6
CONTINUOUS
  0
LAYER
  2
83
 70
    64
 62
     7
  6
CONTINUOUS
  0
LAYER
  2
84
 70
    64
 62
     7
  6
CONTINUOUS
  0
LAYER
  2
85
 70
    64
 62
     7
  6
CONTINUOUS
  0
LAYER
  2
86
 70
    64
 62
     7
  6
CONTINUOUS
  0
LAYER
  2
87
 70
    64
 62
     7
  6
CONTINUOUS
  0
LAYER
  2
88
 70
    64
 62
     7
  6
CONTINUOUS
  0
LAYER
  2
89
 70
    64
 62
     7
  6
CONTINUOUS
  0
LAYER
  2
90
 70
    64
 62
     7
  6
CONTINUOUS
  0
LAYER
  2
91
 70
    64
 62
     7
  6
CONTINUOUS
  0
LAYER
  2
92
 70
    64
 62
     7
  6
CONTINUOUS
  0
LAYER
  2
93
 70
    64
 62
     7
  6
CONTINUOUS
  0
LAYER
  2
94
 70
    64
 62
     7
  6
CONTINUOUS
  0
LAYER
  2
95
 70
    64
 62
     7
  6
CONTINUOUS
  0
LAYER
  2
96
 70
    64
 62
     7
  6
CONTINUOUS
  0
LAYER
  2
97
 70
    64
 62
     7
  6
CONTINUOUS
  0
LAYER
  2
98
 70
    64
 62
     7
  6
CONTINUOUS
  0
LAYER
  2
99
 70
    64
 62
     7
  6
CONTINUOUS
  0
LAYER
  2
100
 70
    64
 62
     7
  6
CONTINUOUS
  0
LAYER
  2
101
 70
    64
 62
     7
  6
CONTINUOUS
  0
LAYER
  2
102
 70
    64
 62
     7
  6
CONTINUOUS
  0
LAYER
  2
103
 70
    64
 62
     7
  6
CONTINUOUS
  0
LAYER
  2
104
 70
    64
 62
     7
  6
CONTINUOUS
  0
LAYER
  2
105
 70
    64
 62
     7
  6
CONTINUOUS
  0
LAYER
  2
106
 70
    64
 62
     7
  6
CONTINUOUS
  0
LAYER
  2
107
 70
    64
 62
     7
  6
CONTINUOUS
  0
LAYER
  2
108
 70
    64
 62
     7
  6
CONTINUOUS
  0
LAYER
  2
109
 70
    64
 62
     7
  6
CONTINUOUS
  0
LAYER
  2
110
 70
    64
 62
     7
  6
CONTINUOUS
  0
LAYER
  2
111
 70
    64
 62
     7
  6
CONTINUOUS
  0
LAYER
  2
112
 70
    64
 62
     7
  6
CONTINUOUS
  0
LAYER
  2
113
 70
    64
 62
     7
  6
CONTINUOUS
  0
LAYER
  2
114
 70
    64
 62
     7
  6
CONTINUOUS
  0
LAYER
  2
115
 70
    64
 62
     7
  6
CONTINUOUS
  0
LAYER
  2
116
 70
    64
 62
     7
  6
CONTINUOUS
  0
LAYER
  2
117
 70
    64
 62
     7
  6
CONTINUOUS
  0
LAYER
  2
118
 70
    64
 62
     7
  6
CONTINUOUS
  0
LAYER
  2
119
 70
    64
 62
     7
  6
CONTINUOUS
  0
LAYER
  2
120
 70
    64
 62
     7
  6
CONTINUOUS
  0
LAYER
  2
121
 70
    64
 62
     7
  6
CONTINUOUS
  0
LAYER
  2
122
 70
    64
 62
     7
  6
CONTINUOUS
  0
LAYER
  2
123
 70
    64
 62
     7
  6
CONTINUOUS
  0
LAYER
  2
124
 70
    64
 62
     7
  6
CONTINUOUS
  0
LAYER
  2
125
 70
    64
 62
     7
  6
CONTINUOUS
  0
LAYER
  2
126
 70
    64
 62
     7
  6
CONTINUOUS
  0
LAYER
  2
127
 70
    64
 62
     7
  6
CONTINUOUS
  0
LAYER
  2
128
 70
    64
 62
     7
  6
CONTINUOUS
  0
LAYER
  2
129
 70
    64
 62
     7
  6
CONTINUOUS
  0
LAYER
  2
130
 70
    64
 62
     7
  6
CONTINUOUS
  0
LAYER
  2
131
 70
    64
 62
     7
  6
CONTINUOUS
  0
LAYER
  2
132
 70
    64
 62
     7
  6
CONTINUOUS
  0
LAYER
  2
133
 70
    64
 62
     7
  6
CONTINUOUS
  0
LAYER
  2
134
 70
    64
 62
     7
  6
CONTINUOUS
  0
LAYER
  2
135
 70
    64
 62
     7
  6
CONTINUOUS
  0
LAYER
  2
136
 70
    64
 62
     7
  6
CONTINUOUS
  0
LAYER
  2
137
 70
    64
 62
     7
  6
CONTINUOUS
  0
LAYER
  2
138
 70
    64
 62
     7
  6
CONTINUOUS
  0
LAYER
  2
139
 70
    64
 62
     7
  6
CONTINUOUS
  0
LAYER
  2
140
 70
    64
 62
     7
  6
CONTINUOUS
  0
LAYER
  2
141
 70
    64
 62
     7
  6
CONTINUOUS
  0
LAYER
  2
142
 70
    64
 62
     7
  6
CONTINUOUS
  0
LAYER
  2
143
 70
    64
 62
     7
  6
CONTINUOUS
  0
LAYER
  2
144
 70
    64
 62
     7
  6
CONTINUOUS
  0
LAYER
  2
145
 70
    64
 62
     7
  6
CONTINUOUS
  0
LAYER
  2
146
 70
    64
 62
     7
  6
CONTINUOUS
  0
LAYER
  2
147
 70
    64
 62
     7
  6
CONTINUOUS
  0
LAYER
  2
148
 70
    64
 62
     7
  6
CONTINUOUS
  0
LAYER
  2
149
 70
    64
 62
     7
  6
CONTINUOUS
  0
LAYER
  2
150
 70
    64
 62
     7
  6
CONTINUOUS
  0
LAYER
  2
151
 70
    64
 62
     7
  6
CONTINUOUS
  0
LAYER
  2
152
 70
    64
 62
     7
  6
CONTINUOUS
  0
LAYER
  2
153
 70
    64
 62
     7
  6
CONTINUOUS
  0
LAYER
  2
154
 70
    64
 62
     7
  6
CONTINUOUS
  0
LAYER
  2
155
 70
    64
 62
     7
  6
CONTINUOUS
  0
LAYER
  2
156
 70
    64
 62
     7
  6
CONTINUOUS
  0
LAYER
  2
157
 70
    64
 62
     7
  6
CONTINUOUS
  0
LAYER
  2
158
 70
    64
 62
     7
  6
CONTINUOUS
  0
LAYER
  2
159
 70
    64
 62
     7
  6
CONTINUOUS
  0
LAYER
  2
160
 70
    64
 62
     7
  6
CONTINUOUS
  0
LAYER
  2
161
 70
    64
 62
     7
  6
CONTINUOUS
  0
LAYER
  2
162
 70
    64
 62
     7
  6
CONTINUOUS
  0
LAYER
  2
163
 70
    64
 62
     7
  6
CONTINUOUS
  0
LAYER
  2
164
 70
    64
 62
     7
  6
CONTINUOUS
  0
LAYER
  2
165
 70
    64
 62
     7
  6
CONTINUOUS
  0
LAYER
  2
166
 70
    64
 62
     7
  6
CONTINUOUS
  0
LAYER
  2
167
 70
    64
 62
     7
  6
CONTINUOUS
  0
LAYER
  2
168
 70
    64
 62
     7
  6
CONTINUOUS
  0
LAYER
  2
169
 70
    64
 62
     7
  6
CONTINUOUS
  0
LAYER
  2
170
 70
    64
 62
     7
  6
CONTINUOUS
  0
LAYER
  2
171
 70
    64
 62
     7
  6
CONTINUOUS
  0
LAYER
  2
172
 70
    64
 62
     7
  6
CONTINUOUS
  0
LAYER
  2
173
 70
    64
 62
     7
  6
CONTINUOUS
  0
LAYER
  2
174
 70
    64
 62
     7
  6
CONTINUOUS
  0
LAYER
  2
175
 70
    64
 62
     7
  6
CONTINUOUS
  0
LAYER
  2
176
 70
    64
 62
     7
  6
CONTINUOUS
  0
LAYER
  2
177
 70
    64
 62
     7
  6
CONTINUOUS
  0
LAYER
  2
178
 70
    64
 62
     7
  6
CONTINUOUS
  0
LAYER
  2
179
 70
    64
 62
     7
  6
CONTINUOUS
  0
LAYER
  2
180
 70
    64
 62
     7
  6
CONTINUOUS
  0
LAYER
  2
181
 70
    64
 62
     7
  6
CONTINUOUS
  0
LAYER
  2
182
 70
    64
 62
     7
  6
CONTINUOUS
  0
LAYER
  2
183
 70
    64
 62
     7
  6
CONTINUOUS
  0
LAYER
  2
184
 70
    64
 62
     7
  6
CONTINUOUS
  0
LAYER
  2
185
 70
    64
 62
     7
  6
CONTINUOUS
  0
LAYER
  2
186
 70
    64
 62
     7
  6
CONTINUOUS
  0
LAYER
  2
187
 70
    64
 62
     7
  6
CONTINUOUS
  0
LAYER
  2
188
 70
    64
 62
     7
  6
CONTINUOUS
  0
LAYER
  2
189
 70
    64
 62
     7
  6
CONTINUOUS
  0
LAYER
  2
190
 70
    64
 62
     7
  6
CONTINUOUS
  0
LAYER
  2
191
 70
    64
 62
     7
  6
CONTINUOUS
  0
LAYER
  2
192
 70
    64
 62
     7
  6
CONTINUOUS
  0
LAYER
  2
193
 70
    64
 62
     7
  6
CONTINUOUS
  0
LAYER
  2
194
 70
    64
 62
     7
  6
CONTINUOUS
  0
LAYER
  2
195
 70
    64
 62
     7
  6
CONTINUOUS
  0
LAYER
  2
196
 70
    64
 62
     7
  6
CONTINUOUS
  0
LAYER
  2
197
 70
    64
 62
     7
  6
CONTINUOUS
  0
LAYER
  2
198
 70
    64
 62
     7
  6
CONTINUOUS
  0
LAYER
  2
199
 70
    64
 62
     7
  6
CONTINUOUS
  0
LAYER
  2
200
 70
    64
 62
     7
  6
CONTINUOUS
  0
LAYER
  2
201
 70
    64
 62
     7
  6
CONTINUOUS
  0
LAYER
  2
202
 70
    64
 62
     7
  6
CONTINUOUS
  0
LAYER
  2
203
 70
    64
 62
     7
  6
CONTINUOUS
  0
LAYER
  2
204
 70
    64
 62
     7
  6
CONTINUOUS
  0
LAYER
  2
205
 70
    64
 62
     7
  6
CONTINUOUS
  0
LAYER
  2
206
 70
    64
 62
     7
  6
CONTINUOUS
  0
LAYER
  2
207
 70
    64
 62
     7
  6
CONTINUOUS
  0
LAYER
  2
208
 70
    64
 62
     7
  6
CONTINUOUS
  0
LAYER
  2
209
 70
    64
 62
     7
  6
CONTINUOUS
  0
LAYER
  2
210
 70
    64
 62
     7
  6
CONTINUOUS
  0
LAYER
  2
211
 70
    64
 62
     7
  6
CONTINUOUS
  0
LAYER
  2
212
 70
    64
 62
     7
  6
CONTINUOUS
  0
LAYER
  2
213
 70
    64
 62
     7
  6
CONTINUOUS
  0
LAYER
  2
214
 70
    64
 62
     7
  6
CONTINUOUS
  0
LAYER
  2
215
 70
    64
 62
     7
  6
CONTINUOUS
  0
LAYER
  2
216
 70
    64
 62
     7
  6
CONTINUOUS
  0
LAYER
  2
217
 70
    64
 62
     7
  6
CONTINUOUS
  0
LAYER
  2
218
 70
    64
 62
     7
  6
CONTINUOUS
  0
LAYER
  2
219
 70
    64
 62
     7
  6
CONTINUOUS
  0
LAYER
  2
220
 70
    64
 62
     7
  6
CONTINUOUS
  0
LAYER
  2
221
 70
    64
 62
     7
  6
CONTINUOUS
  0
LAYER
  2
222
 70
    64
 62
     7
  6
CONTINUOUS
  0
LAYER
  2
223
 70
    64
 62
     7
  6
CONTINUOUS
  0
LAYER
  2
224
 70
    64
 62
     7
  6
CONTINUOUS
  0
LAYER
  2
225
 70
    64
 62
     7
  6
CONTINUOUS
  0
LAYER
  2
226
 70
    64
 62
     7
  6
CONTINUOUS
  0
LAYER
  2
227
 70
    64
 62
     7
  6
CONTINUOUS
  0
LAYER
  2
228
 70
    64
 62
     7
  6
CONTINUOUS
  0
LAYER
  2
229
 70
    64
 62
     7
  6
CONTINUOUS
  0
LAYER
  2
230
 70
    64
 62
     7
  6
CONTINUOUS
  0
LAYER
  2
231
 70
    64
 62
     7
  6
CONTINUOUS
  0
LAYER
  2
232
 70
    64
 62
     7
  6
CONTINUOUS
  0
LAYER
  2
233
 70
    64
 62
     7
  6
CONTINUOUS
  0
LAYER
  2
234
 70
    64
 62
     7
  6
CONTINUOUS
  0
LAYER
  2
235
 70
    64
 62
     7
  6
CONTINUOUS
  0
LAYER
  2
236
 70
    64
 62
     7
  6
CONTINUOUS
  0
LAYER
  2
237
 70
    64
 62
     7
  6
CONTINUOUS
  0
LAYER
  2
238
 70
    64
 62
     7
  6
CONTINUOUS
  0
LAYER
  2
239
 70
    64
 62
     7
  6
CONTINUOUS
  0
LAYER
  2
240
 70
    64
 62
     7
  6
CONTINUOUS
  0
LAYER
  2
241
 70
    64
 62
     7
  6
CONTINUOUS
  0
LAYER
  2
242
 70
    64
 62
     7
  6
CONTINUOUS
  0
LAYER
  2
243
 70
    64
 62
     7
  6
CONTINUOUS
  0
LAYER
  2
244
 70
    64
 62
     7
  6
CONTINUOUS
  0
LAYER
  2
245
 70
    64
 62
     7
  6
CONTINUOUS
  0
LAYER
  2
246
 70
    64
 62
     7
  6
CONTINUOUS
  0
LAYER
  2
247
 70
    64
 62
     7
  6
CONTINUOUS
  0
LAYER
  2
248
 70
    64
 62
     7
  6
CONTINUOUS
  0
LAYER
  2
249
 70
    64
 62
     7
  6
CONTINUOUS
  0
LAYER
  2
250
 70
    64
 62
     7
  6
CONTINUOUS
  0
LAYER
  2
251
 70
    64
 62
     7
  6
CONTINUOUS
  0
LAYER
  2
252
 70
    64
 62
     7
  6
CONTINUOUS
  0
LAYER
  2
253
 70
    64
 62
     7
  6
CONTINUOUS
  0
LAYER
  2
254
 70
    64
 62
     7
  6
CONTINUOUS
  0
LAYER
  2
255
 70
    64
 62
     7
  6
CONTINUOUS
  0
ENDTAB
  0
TABLE
  2
STYLE
 70
     2
  0
STYLE
  2
STANDARD
 70
    64
 40
0.0
 41
1.0
 50
0.0
 71
     0
 42
3.000000
  3
TXT
  4
BIGFONT
  0
ENDTAB
  0
ENDSEC
  0
SECTION
  2
BLOCKS
  0
BLOCK
  8
0
  2
CADWIN-G0
 70
    0
 10
0.0
 20
0.0
  0
LINE
  8
5
  6
CONTINUOUS
 62
     7
 10
-32.866435337434197
 20
-143.63793033567651
 11
-32.866435337434197
 21
-178.63793033567651
  0
LINE
  8
5
  6
CONTINUOUS
 62
     7
 10
-32.866435337434197
 20
-178.63793033567651
 11
 27.133564662565789
 21
-178.63793033567651
  0
LINE
  8
5
  6
CONTINUOUS
 62
     7
 10
 27.133564662565789
 20
-178.63793033567651
 11
 27.133564662565789
 21
-143.63793033567651
  0
LINE
  8
5
  6
CONTINUOUS
 62
     7
 10
 27.133564662565789
 20
-143.63793033567651
 11
-32.866435337434211
 21
-143.63793033567651
  0
ENDBLK
  8
0
  0
BLOCK
  8
0
  2
CADWIN-G1
 70
    0
 10
0.0
 20
0.0
  0
LINE
  8
192
  6
CONTINUOUS
 62
     7
 10
-95.480059483574422
 20
 139.50087873462189
 11
-142.35014194943895
 21
 73.355292686224161
  0
LINE
  8
192
  6
CONTINUOUS
 62
     7
 10
-95.480059483574422
 20
 139.50087873462189
 11
-100.99378225826449
 21
 134.41670120390327
  0
LINE
  8
192
  6
CONTINUOUS
 62
     7
 10
-95.480059483574422
 20
 139.50087873462189
 11
-98.449174577447195
 21
 132.61361835335731
  0
LINE
  8
192
  6
CONTINUOUS
 62
     7
 10
-142.35014194943895
 20
 73.355292686224161
 11
-184.75014194943896
 21
 73.355292686224161
  0
TEXT
  8
192
  6
CONTINUOUS
 62
     56
 10
-182.75014194943896
 20
 74.555292686224163
 11
-144.35014194943895
 21
 74.555292686224163
 40
 12
 41
 0.8
  1
2～φ9
 50
 0
 72
  5
  0
ENDBLK
  8
0
  0
BLOCK
  8
0
  2
CADWIN-G2
 70
    0
 10
0.0
 20
0.0
  0
LINE
  8
192
  6
CONTINUOUS
 62
     7
 10
-95.451994431607545
 20
-134.81957975567943
 11
-134.31852102203598
 21
-184.30702987697717
  0
LINE
  8
192
  6
CONTINUOUS
 62
     7
 10
-95.451994431607545
 20
-134.81957975567943
 11
-101.20954620375466
 21
-139.62588785972829
  0
LINE
  8
192
  6
CONTINUOUS
 62
     7
 10
-95.451994431607545
 20
-134.81957975567943
 11
-98.756878076365794
 21
-141.55216797230233
  0
LINE
  8
192
  6
CONTINUOUS
 62
     7
 10
-134.31852102203598
 20
-184.30702987697717
 11
-202.11852102203596
 21
-184.30702987697717
  0
TEXT
  8
192
  6
CONTINUOUS
 62
     56
 10
-200.61852102203596
 20
-183.40702987697716
 11
-135.81852102203598
 21
-183.40702987697716
 40
 9
 41
 0.8
  1
φ6ホースニップル
 50
 0
 72
  5
  0
ENDBLK
  8
0
  0
BLOCK
  8
0
  2
CADWIN-G3
 70
    0
 10
0.0
 20
0.0
  0
LINE
  8
192
  6
CONTINUOUS
 62
     7
 10
-95.398151922147122
 20
-0.2440814424368565
 11
-149.25484655941599
 21
 13.599283493308084
  0
LINE
  8
192
  6
CONTINUOUS
 62
     7
 10
-95.398151922147122
 20
-0.2440814424368565
 11
-102.11510024156307
 21
 3.0924744576336445
  0
LINE
  8
192
  6
CONTINUOUS
 62
     7
 10
-95.398151922147122
 20
-0.2440814424368565
 11
-102.8914890947991
 21
 0.0719850330902893
  0
LINE
  8
192
  6
CONTINUOUS
 62
     7
 10
-149.25484655941599
 20
 13.599283493308084
 11
-217.05484655941598
 21
 13.599283493308084
  0
TEXT
  8
192
  6
CONTINUOUS
 62
     56
 10
-215.55484655941598
 20
 14.499283493308083
 11
-150.75484655941599
 21
 14.499283493308083
 40
 9
 41
 0.8
  1
φ6ホースニップル
 50
 0
 72
  5
  0
ENDBLK
  8
0
  0
ENDSEC
  0
SECTION
  2
ENTITIES
  0
LINE
  8
0
  6
CONTINUOUS
 62
     5
 10
-269.99999999999989
 20
-415.5
 11
-269.99999999999989
 21
 415.5
  0
LINE
  8
0
  6
CONTINUOUS
 62
     5
 10
 284.99999999999989
 20
 415.5
 11
 284.99999999999989
 21
-415.5
  0
LINE
  8
0
  6
CONTINUOUS
 62
     5
 10
 284.99999999999989
 20
-415.5
 11
-269.99999999999989
 21
-415.5
  0
LINE
  8
0
  6
CONTINUOUS
 62
     5
 10
-269.99999999999989
 20
 415.5
 11
 284.99999999999989
 21
 415.5
  0
LINE
  8
0
  6
CONTINUOUS
 62
     5
 10
 284.99999999999989
 20
-298.5
 11
-269.99999999999989
 21
-298.5
  0
LINE
  8
0
  6
CONTINUOUS
 62
     5
 10
 284.99999999999989
 20
-322.5
 11
-269.99999999999989
 21
-322.5
  0
LINE
  8
0
  6
CONTINUOUS
 62
     5
 10
 284.99999999999989
 20
-361.5
 11
-269.99999999999989
 21
-361.5
  0
LINE
  8
0
  6
CONTINUOUS
 62
     5
 10
 45
 20
-382.5
 11
-269.99999999999989
 21
-382.5
  0
LINE
  8
0
  6
CONTINUOUS
 62
     5
 10
 45
 20
-415.5
 11
 45
 21
-298.5
  0
LINE
  8
0
  6
CONTINUOUS
 62
     5
 10
-191.25
 20
-361.5
 11
-191.25
 21
-415.5
  0
LINE
  8
0
  6
CONTINUOUS
 62
     5
 10
-112.49999999999997
 20
-361.5
 11
-112.49999999999997
 21
-415.5
  0
LINE
  8
0
  6
CONTINUOUS
 62
     5
 10
-33.749999999999986
 20
-361.5
 11
-33.749999999999986
 21
-415.5
  0
LINE
  8
0
  6
CONTINUOUS
 62
     5
 10
-269.99999999999989
 20
-340.5
 11
 45
 21
-340.5
  0
LINE
  8
0
  6
CONTINUOUS
 62
     5
 10
 237
 20
-298.5
 11
 237
 21
-361.5
  0
LINE
  8
0
  6
CONTINUOUS
 62
     5
 10
 226.99999999999997
 20
-349.49999999999989
 11
 54.999999999999986
 21
-349.49999999999989
  0
TEXT
  8
0
  6
CONTINUOUS
 62
     5
 10
-252.82500005364415
 20
-381
 11
-208.42500005364411
 21
-381
 40
 9
 41
 0.8
  1
承認
 50
 0
 72
  5
  0
TEXT
  8
0
  6
CONTINUOUS
 62
     5
 10
-174.07500005364412
 20
-381
 11
-129.67500005364411
 21
-381
 40
 9
 41
 0.8
  1
検図
 50
 0
 72
  5
  0
TEXT
  8
0
  6
CONTINUOUS
 62
     5
 10
-95.325000053644175
 20
-381
 11
-50.925000053644183
 21
-381
 40
 9
 41
 0.8
  1
設計
 50
 0
 72
  5
  0
TEXT
  8
0
  6
CONTINUOUS
 62
     5
 10
-16.575000053644178
 20
-381
 11
 27.82499994635582
 21
-381
 40
 9
 41
 0.8
  1
製図
 50
 0
 72
  5
  0
TEXT
  8
0
  6
CONTINUOUS
 62
     3
 10
-17.775000062584876
 20
-404.25
 11
 29.024999937415117
 21
-404.25
 40
 10.5
 41
 0.8
  1
大塚
 50
 0
 72
  5
  0
TEXT
  8
0
  6
CONTINUOUS
 62
     3
 10
-115.99999431371675
 20
-355.49999999999989
 11
-19.999994313716769
 21
-355.49999999999989
 40
 9
 41
 0.8
  1
外形寸法図
 50
 0
 72
  5
  0
TEXT
  8
0
  6
CONTINUOUS
 62
     3
 10
 247.2000000268221
 20
-346.49999999999989
 11
 274.80000002682209
 21
-346.49999999999989
 40
 9
 41
 0.8
  1
１／３
 50
 0
 72
  5
  0
TEXT
  8
0
  6
CONTINUOUS
 62
     5
 10
 168.59999983906741
 20
-411
 11
 251.99999983906744
 21
-411
 40
 24
 41
 0.8
  1
神洋
 50
 0
 72
  5
  0
TEXT
  8
0
  6
CONTINUOUS
 62
     5
 10
 72.600000017881399
 20
-319.49999999999989
 11
 209.40000001788141
 21
-319.49999999999989
 40
 9
 41
 0.8
  1
図面番号
 50
 0
 72
  5
  0
TEXT
  8
0
  6
CONTINUOUS
 62
     5
 10
 246.30000003576279
 20
-319.49999999999989
 11
 275.70000003576274
 21
-319.49999999999989
 40
 9
 41
 0.8
  1
尺度
 50
 0
 72
  5
  0
TEXT
  8
0
  6
CONTINUOUS
 62
     5
 10
-216.89999998211852
 20
-319.49999999999989
 11
-8.0999999821185042
 21
-319.49999999999989
 40
 9
 41
 0.8
  1
図面名称
 50
 0
 72
  5
  0
TEXT
  8
0
  6
CONTINUOUS
 62
     3
 10
 72.599999973177887
 20
-340.49999999999989
 11
 209.3999999731779
 21
-340.49999999999989
 40
 9
 41
 0.8
  1
CAP-0-130
 50
 0
 72
  5
  0
TEXT
  8
0
  6
CONTINUOUS
 62
     3
 10
-242.49999994635567
 20
-337.5
 11
-35.499999946355672
 21
-337.5
 40
 9
 41
 0.8
  1
ＫＰポンプ　（φ6）
 50
 0
 72
  5
  0
TEXT
  8
0
  6
CONTINUOUS
 62
     5
 10
-177.67500021457667
 20
-368.99999999999989
 11
-126.07500021457666
 21
-368.99999999999989
 40
 6
 41
 0.8
  1
CHECKED
 50
 0
 72
  5
  0
TEXT
  8
0
  6
CONTINUOUS
 62
     5
 10
-102.82500025033951
 20
-368.99999999999989
 11
-43.425000250339501
 21
-368.99999999999989
 40
 6
 41
 0.8
  1
DESIGNED
 50
 0
 72
  5
  0
TEXT
  8
0
  6
CONTINUOUS
 62
     5
 10
-12.375000143051148
 20
-368.99999999999989
 11
 23.624999856948854
 21
-368.99999999999989
 40
 6
 41
 0.8
  1
DRAWN
 50
 0
 72
  5
  0
TEXT
  8
0
  6
CONTINUOUS
 62
     5
 10
-130.50000014305115
 20
-306
 11
-94.500000143051153
 21
-306
 40
 6
 41
 0.8
  1
TITLE
 50
 0
 72
  5
  0
TEXT
  8
0
  6
CONTINUOUS
 62
     5
 10
-260.32500025033949
 20
-368.99999999999989
 11
-200.92500025033951
 21
-368.99999999999989
 40
 6
 41
 0.8
  1
APPROVED
 50
 0
 72
  5
  0
TEXT
  8
0
  6
CONTINUOUS
 62
     5
 10
 242.99999985694885
 20
-306
 11
 278.99999985694888
 21
-306
 40
 6
 41
 0.8
  1
SCALE
 50
 0
 72
  5
  0
TEXT
  8
0
  6
CONTINUOUS
 62
     5
 10
 173.83556589129572
 20
-306
 11
 194.23556589129572
 21
-306
 40
 6
 41
 0.8
  1
NO.
 50
 0
 72
  5
  0
TEXT
  8
0
  6
CONTINUOUS
 62
     5
 10
 70.964790415887535
 20
-306
 11
 122.56479041588754
 21
-306
 40
 6
 41
 0.8
  1
DRAWING
 50
 0
 72
  5
  0
TEXT
  8
0
  6
CONTINUOUS
 62
     5
 10
 83.243696317520133
 20
-408.00000001384143
 11
 143.84369631752014
 21
-408.00000001384143
 40
 10.5
 41
 0.8
  1
株式会社
 50
 0
 72
  5
  0
TEXT
  8
0
  6
CONTINUOUS
 62
     5
 10
 68.291932193274747
 20
-377.99999999999989
 11
 229.09193219327474
 21
-377.99999999999989
 40
 12
 41
 0.8
  1
SINYO CO.,LTD
 50
 0
 72
  5
  0
LINE
  8
0
  6
CONTINUOUS
 62
     5
 10
-269.99999999999989
 20
 0.0000000000000043
 11
-284.99999999999989
 21
 0.0000000000000043
  0
POINT
  8
0
  6
CONTINUOUS
 62
     7
 10
 104.39367311072056
 20
 139.50087873462212
  0
LINE
  8
5
  6
CONTINUOUS
 62
     4
 10
-105.60632388927934
 20
 141.5008717346218
 11
-105.60632388927934
 21
 139.50087873462189
  0
LINE
  8
5
  6
CONTINUOUS
 62
     4
 10
-105.60632388927934
 20
 139.50087873462189
 11
-82.606331889279318
 21
 139.50087873462189
  0
LINE
  8
5
  6
CONTINUOUS
 62
     4
 10
-82.606331889279318
 20
 139.50087873462189
 11
-82.606331889279318
 21
 211.50086573462181
  0
LINE
  8
5
  6
CONTINUOUS
 62
     4
 10
-82.606331889279318
 20
 211.50086573462181
 11
 1.3937051107204752
 21
 211.50086573462181
  0
LINE
  8
5
  6
CONTINUOUS
 62
     4
 10
 1.3937051107204752
 20
 211.50086573462181
 11
 1.3937051107204752
 21
 139.50087873462189
  0
LINE
  8
5
  6
CONTINUOUS
 62
     4
 10
 1.3937051107204752
 20
 139.50087873462189
 11
 24.393697110720495
 21
 139.50087873462189
  0
LINE
  8
5
  6
CONTINUOUS
 62
     4
 10
 24.393697110720495
 20
 139.50087873462189
 11
 24.393697110720495
 21
 141.5008717346218
  0
LINE
  8
5
  6
CONTINUOUS
 62
     4
 10
 24.393697110720495
 20
 141.5008717346218
 11
 4.393673110720556
 21
 141.5008717346218
  0
LINE
  8
5
  6
CONTINUOUS
 62
     4
 10
 4.393673110720556
 20
 141.5008717346218
 11
 4.393673110720556
 21
 213.50085973462183
  0
LINE
  8
5
  6
CONTINUOUS
 62
     4
 10
 4.393673110720556
 20
 213.50085973462183
 11
-85.606299889279398
 21
 213.50085973462183
  0
LINE
  8
5
  6
CONTINUOUS
 62
     4
 10
-85.606299889279398
 20
 213.50085973462183
 11
-85.606299889279398
 21
 141.5008717346218
  0
LINE
  8
5
  6
CONTINUOUS
 62
     4
 10
-85.606299889279398
 20
 141.5008717346218
 11
-105.60632388927934
 21
 141.5008717346218
  0
LINE
  8
5
  6
CONTINUOUS
 62
     4
 10
 122.54465611072057
 20
 295.50087873462206
 11
 122.54465611072057
 21
 243.50087873462221
  0
LINE
  8
5
  6
CONTINUOUS
 62
     4
 10
 122.54465611072057
 20
 243.50087873462221
 11
 46.544675110719709
 21
 243.50087873462221
  0
LINE
  8
5
  6
CONTINUOUS
 62
     4
 10
 46.544675110721528
 20
 295.50087873462206
 11
 122.54465611072057
 21
 295.50087873462206
  0
LINE
  8
5
  6
CONTINUOUS
 62
     4
 10
 72.54468511072082
 20
 295.50087873462206
 11
 72.54468511072082
 21
 243.50087873462221
  0
LINE
  8
5
  6
CONTINUOUS
 62
     4
 10
 41.544675110721982
 20
 302.50087873461933
 11
 41.544675110720164
 21
 236.50087873462303
  0
ARC
  8
5
  6
CONTINUOUS
 62
     4
 10
-69.455340889279341
 20
 270.65189473462209
 40
 40.999977999999999
 50
 9.6887918259603527
 51
-9.6887918259603829
  0
ARC
  8
5
  6
CONTINUOUS
 62
     4
 10
-11.455307889279538
 20
 309.50089873462235
 40
 5.9999809999999991
 50
 0
 51
 90.000001718873406
  0
LINE
  8
5
  6
CONTINUOUS
 62
     4
 10
-5.4553268892791493
 20
 300.50087873462229
 11
-5.4553268892791493
 21
 309.50089873462224
  0
ARC
  8
5
  6
CONTINUOUS
 62
     4
 10
-86.455307889279538
 20
 309.50089873462235
 40
 5.9999809999999991
 50
 90.000001718873406
 51
 180.00000286478902
  0
LINE
  8
5
  6
CONTINUOUS
 62
     4
 10
-92.455332889279362
 20
 309.50089873462224
 11
-92.455332889279362
 21
 304.59300673462207
  0
LINE
  8
5
  6
CONTINUOUS
 62
     4
 10
-11.455307889279538
 20
 315.50087873462229
 11
-86.455307889279538
 21
 315.50087873462229
  0
LINE
  8
5
  6
CONTINUOUS
 62
     4
 10
-119.45531188927954
 20
 300.65188573462211
 11
-113.45533088927959
 21
 300.65188573462211
  0
LINE
  8
5
  6
CONTINUOUS
 62
     4
 10
-113.45533088927959
 20
 300.65188573462211
 11
-113.45533088927959
 21
 302.65187973462213
  0
LINE
  8
5
  6
CONTINUOUS
 62
     4
 10
-113.45533088927959
 20
 302.65187973462213
 11
-95.087352889279373
 21
 302.65187973462213
  0
LINE
  8
5
  6
CONTINUOUS
 62
     4
 10
-119.45531188927954
 20
 300.65188573462211
 11
-119.45531188927954
 21
 261.65185773462213
  0
LINE
  8
5
  6
CONTINUOUS
 62
     4
 10
-119.45531188927954
 20
 261.65185773462213
 11
-113.45533088927959
 21
 260.65188273462212
  0
LINE
  8
5
  6
CONTINUOUS
 62
     4
 10
-113.45533088927959
 20
 260.65188273462212
 11
-109.21713288927958
 21
 260.65188273462212
  0
LINE
  8
5
  6
CONTINUOUS
 62
     4
 10
-113.45533088927959
 20
 300.65188573462211
 11
-113.45533088927959
 21
 260.65188273462212
  0
LINE
  8
5
  6
CONTINUOUS
 62
     4
 10
-119.45531188927954
 20
 285.50090323462251
 11
-124.60631488927993
 21
 285.50090323462217
  0
LINE
  8
5
  6
CONTINUOUS
 62
     4
 10
-124.60631488927993
 20
 272.50087923462223
 11
-119.45531188927954
 21
 272.50087923462542
  0
LINE
  8
5
  6
CONTINUOUS
 62
     4
 10
-154.60634988927995
 20
 295.50087123462225
 11
-141.60632588928001
 21
 295.50087123462225
  0
LINE
  8
5
  6
CONTINUOUS
 62
     4
 10
-141.60632588928001
 20
 295.50087123462225
 11
-141.60632588928001
 21
 263.50088623462221
  0
LINE
  8
5
  6
CONTINUOUS
 62
     4
 10
-141.60632588928001
 20
 263.50088623462221
 11
-154.60634988927995
 21
 263.50088623462221
  0
LINE
  8
5
  6
CONTINUOUS
 62
     4
 10
-154.60634988927995
 20
 263.50088623462221
 11
-154.60634988927995
 21
 295.50087123462225
  0
LINE
  8
5
  6
CONTINUOUS
 62
     4
 10
-124.60631488927993
 20
 289.5008902346222
 11
-132.60633288927966
 21
 289.5008902346222
  0
LINE
  8
5
  6
CONTINUOUS
 62
     4
 10
-132.60633288927966
 20
 289.5008902346222
 11
-132.60633288927966
 21
 269.50091123462215
  0
LINE
  8
5
  6
CONTINUOUS
 62
     4
 10
-124.60631488927993
 20
 289.5008902346222
 11
-124.60631488927993
 21
 269.5008672346234
  0
LINE
  8
5
  6
CONTINUOUS
 62
     4
 10
-132.60633288927966
 20
 289.5008902346222
 11
-141.60632588928001
 21
 295.50087123462225
  0
ARC
  8
5
  6
CONTINUOUS
 62
     4
 10
-69.455340889279341
 20
 270.65189473462209
 40
 20
 50
 148.89108002927992
 51
 137.37647367995575
  0
CIRCLE
  8
5
  6
CONTINUOUS
 62
     4
 10
-69.455340889279341
 20
 270.65189473462209
 40
 16
  0
LINE
  8
5
  6
CENTER
 62
     7
 10
-69.455340889279341
 20
 322.27502387970941
 11
-69.455340889279341
 21
 222.80304784635678
  0
LINE
  8
5
  6
CENTER
 62
     7
 10
-105.26475425964327
 20
 279.50087873462206
 11
-168.2710171165113
 21
 279.50087873462206
  0
LINE
  8
5
  6
CONTINUOUS
 62
     4
 10
-124.60631488927993
 20
 269.50086723462204
 11
-132.60633288927966
 21
 269.50086723462204
  0
LINE
  8
5
  6
CONTINUOUS
 62
     4
 10
-132.60633288927966
 20
 269.50086723462204
 11
-141.60632588928001
 21
 263.50088623462204
  0
LINE
  8
5
  6
CONTINUOUS
 62
     4
 10
 0.5446726107188624
 20
 213.50085973462183
 11
 0.5446726107188624
 21
 223.50085973462183
  0
LINE
  8
5
  6
CONTINUOUS
 62
     4
 10
-5.4553273892811376
 20
 238.50087873462212
 11
-5.4553273892811376
 21
 229.50087873462212
  0
LINE
  8
5
  6
CONTINUOUS
 62
     4
 10
-5.4553273892811376
 20
 229.50087873462212
 11
 0.5446726107188624
 21
 223.50085973462183
  0
LINE
  8
5
  6
CONTINUOUS
 62
     4
 10
-79.455327389277954
 20
 213.50085973462183
 11
-79.455327389277954
 21
 230.89012332035625
  0
LINE
  8
5
  6
CENTER
 62
     7
 10
 14.393673110720556
 20
 149.06612944131177
 11
 14.393673110720556
 21
 129.06612944131177
  0
LINE
  8
5
  6
CENTER
 62
     7
 10
-95.606326889279444
 20
 149.06612944131177
 11
-95.606326889279444
 21
 129.06612944131177
  0
LINE
  8
5
  6
CENTER
 62
     7
 10
-90.318109633227209
 20
 282.65189473462209
 11
-104.33074648391437
 21
 282.65189473462209
  0
LINE
  8
5
  6
CENTER
 62
     7
 10
-97.455340889279341
 20
 299.80967079565556
 11
-97.455340889279341
 21
 266.20048579793496
  0
LINE
  8
0
  6
CONTINUOUS
 62
     4
 10
-99.122007555946084
 20
 290.68145498018924
 11
-95.788674222612372
 21
 290.68145498018924
  0
CIRCLE
  8
5
  6
CONTINUOUS
 62
     4
 10
-97.455340889279114
 20
 282.65189473462209
 40
 4.375
  0
LINE
  8
5
  6
CONTINUOUS
 62
     4
 10
-99.122007555947675
 20
 295.80175043962112
 11
-99.122007555945856
 21
 286.69699636773652
  0
LINE
  8
5
  6
CONTINUOUS
 62
     4
 10
-95.788674222612599
 20
 295.80175043962203
 11
-95.788674222612372
 21
 286.69699636773652
  0
ARC
  8
5
  6
CONTINUOUS
 62
     4
 10
-97.455340889279341
 20
 295.80175043962203
 40
 1.6666666666666665
 50
 0.0000000000001895
 51
-180.00000307045767
  0
LINE
  8
0
  6
CONTINUOUS
 62
     4
 10
-99.122007555946084
 20
 274.62233448905539
 11
-95.788674222612372
 21
 274.62233448905539
  0
LINE
  8
5
  6
CONTINUOUS
 62
     4
 10
-99.122007555947675
 20
 269.50203902962352
 11
-99.122007555945856
 21
 278.60679310150857
  0
LINE
  8
5
  6
CONTINUOUS
 62
     4
 10
-95.788674222612599
 20
 269.50203902962306
 11
-95.788674222612372
 21
 278.60679310150857
  0
ARC
  8
5
  6
CONTINUOUS
 62
     4
 10
-97.455340889279341
 20
 269.50203902962306
 40
 1.6666666666666665
 50
 180.00000307045758
 51
-0.0000000000002175
  0
LINE
  8
5
  6
CENTER
 62
     7
 10
 122.54465611072057
 20
 255.69415093615953
 11
 131.91439879349537
 21
 255.69415093615953
  0
LINE
  8
5
  6
CONTINUOUS
 62
     4
 10
 41.544675110721528
 20
 290.25087873462206
 11
 41.544675110721528
 21
 298.75087873462206
  0
LINE
  8
5
  6
CONTINUOUS
 62
     4
 10
 41.544675110721528
 20
 298.75087873462206
 11
 46.244675110721346
 21
 298.75087873462206
  0
LINE
  8
5
  6
CONTINUOUS
 62
     4
 10
 41.544675110721528
 20
 290.25087873462206
 11
 46.244675110721346
 21
 290.25087873462206
  0
LINE
  8
5
  6
CONTINUOUS
 62
     4
 10
 46.244675110721346
 20
 298.75087873462206
 11
 46.544675110721528
 21
 298.23126325008064
  0
LINE
  8
5
  6
CONTINUOUS
 62
     4
 10
 46.244675110721346
 20
 290.25087873462206
 11
 46.544675110721528
 21
 290.77049421916348
  0
LINE
  8
5
  6
CONTINUOUS
 62
     4
 10
 46.544675110721528
 20
 290.77049421916348
 11
 46.544675110721528
 21
 298.23126325008064
  0
LINE
  8
5
  6
CONTINUOUS
 62
     4
 10
 46.244675110721346
 20
 290.25087873462206
 11
 46.244675110721346
 21
 298.75087873462206
  0
LINE
  8
5
  6
CENTER
 62
     7
 10
 41.544675110721528
 20
 294.50087873462206
 11
 51.829118326230855
 21
 294.50087873462206
  0
LINE
  8
5
  6
CONTINUOUS
 62
     4
 10
 41.544675110721528
 20
 248.75087873462212
 11
 41.544675110721528
 21
 240.25087873462212
  0
LINE
  8
5
  6
CONTINUOUS
 62
     4
 10
 41.544675110721528
 20
 240.25087873462212
 11
 46.244675110721346
 21
 240.25087873462212
  0
LINE
  8
5
  6
CONTINUOUS
 62
     4
 10
 41.544675110721528
 20
 248.75087873462212
 11
 46.244675110721346
 21
 248.75087873462212
  0
LINE
  8
5
  6
CONTINUOUS
 62
     4
 10
 46.244675110721346
 20
 240.25087873462212
 11
 46.544675110721528
 21
 240.77049421916354
  0
LINE
  8
5
  6
CONTINUOUS
 62
     4
 10
 46.244675110721346
 20
 248.75087873462212
 11
 46.544675110721528
 21
 248.23126325008073
  0
LINE
  8
5
  6
CONTINUOUS
 62
     4
 10
 46.544675110721528
 20
 248.23126325008073
 11
 46.544675110721528
 21
 240.77049421916354
  0
LINE
  8
5
  6
CONTINUOUS
 62
     4
 10
 46.244675110721346
 20
 248.75087873462212
 11
 46.244675110721346
 21
 240.25087873462212
  0
LINE
  8
5
  6
CENTER
 62
     7
 10
 41.544675110721528
 20
 244.50087873462212
 11
 51.829118326230855
 21
 244.50087873462212
  0
POINT
  8
5
  6
CONTINUOUS
 62
     7
 10
 104.39367311072056
 20
 139.50087873462212
  0
ARC
  8
5
  6
CONTINUOUS
 62
     4
 10
-86.455307889279538
 20
 229.50085873462194
 40
 5.9999809999999991
 50
-180.00000286478902
 51
-90.000001718873378
  0
LINE
  8
5
  6
CONTINUOUS
 62
     4
 10
-92.455332889279362
 20
 229.50085873462194
 11
-92.455332889279362
 21
 236.71079039194615
  0
LINE
  8
5
  6
CONTINUOUS
 62
     4
 10
-79.4553273892775
 20
 223.50087873462189
 11
-86.455307889279538
 21
 223.50087873462189
  0
LINE
  8
5
  6
CONTINUOUS
 62
     4
 10
 34.544659110720204
 20
 236.50087873462212
 11
 34.544659110720204
 21
 302.50087873462218
  0
LINE
  8
5
  6
CONTINUOUS
 62
     4
 10
 41.544675110721982
 20
 302.50087873461933
 11
 26.544659110720204
 21
 302.50087873462218
  0
LINE
  8
5
  6
CONTINUOUS
 62
     4
 10
 24.544659110720204
 20
 300.50087873462218
 11
 26.544659110720204
 21
 302.50087873462218
  0
LINE
  8
5
  6
CONTINUOUS
 62
     4
 10
 24.544659110720204
 20
 300.50087873462218
 11
-41.347755611133834
 21
 300.50087873462229
  0
LINE
  8
5
  6
CONTINUOUS
 62
     4
 10
 24.544659110720204
 20
 238.50087873462212
 11
-44.013046060230863
 21
 238.50087873462212
  0
LINE
  8
5
  6
CONTINUOUS
 62
     4
 10
 41.544675110720164
 20
 236.50087873462303
 11
 26.544659110720204
 21
 236.50087873462212
  0
LINE
  8
5
  6
CONTINUOUS
 62
     4
 10
 24.544659110720204
 20
 238.50087873462212
 11
 26.544659110720204
 21
 236.50087873462212
  0
LINE
  8
5
  6
CONTINUOUS
 62
     4
 10
 24.544659110720204
 20
 300.50087873462218
 11
 24.544659110720204
 21
 238.50087873462212
  0
LINE
  8
5
  6
CONTINUOUS
 62
     4
 10
 26.544659110720204
 20
 302.50087873462218
 11
 26.544659110720204
 21
 236.50087873462212
  0
LINE
  8
2
  6
CONTINUOUS
 62
     4
 10
 108.39367311072101
 20
 321.69205520521012
 11
 108.39367311072056
 21
 313.35728649932787
  0
LINE
  8
2
  6
CONTINUOUS
 62
     4
 10
 100.39367311072056
 20
 321.69205520521035
 11
 100.39367311072056
 21
 313.35728649932753
  0
LINE
  8
2
  6
CONTINUOUS
 62
     4
 10
 101.5230251956018
 20
 339.50087873462229
 11
 107.26432102583976
 21
 339.50087873462184
  0
LINE
  8
2
  6
CONTINUOUS
 62
     4
 10
 100.39367311072101
 20
 335.04867285226936
 11
 108.39367311072147
 21
 335.04867285226914
  0
LINE
  8
2
  6
CONTINUOUS
 62
     4
 10
 100.39367311072101
 20
 330.59646696991643
 11
 108.39367311072147
 21
 330.59646696991621
  0
LINE
  8
2
  6
CONTINUOUS
 62
     4
 10
 100.39367311072101
 20
 326.14426108756351
 11
 108.39367311072147
 21
 326.14426108756328
  0
LINE
  8
2
  6
CONTINUOUS
 62
     4
 10
 100.39367311072101
 20
 321.69205520521035
 11
 108.39367311072147
 21
 321.69205520521012
  0
LINE
  8
2
  6
CONTINUOUS
 62
     4
 10
 108.39367311072147
 20
 335.04867285226914
 11
 107.26432102583976
 21
 339.50087873462184
  0
LINE
  8
2
  6
CONTINUOUS
 62
     4
 10
 108.39367311072147
 20
 330.59646696991643
 11
 107.26432102583931
 21
 335.04867285226914
  0
LINE
  8
2
  6
CONTINUOUS
 62
     4
 10
 108.39367311072147
 20
 326.14426108756351
 11
 107.26432102583931
 21
 330.59646696991621
  0
LINE
  8
2
  6
CONTINUOUS
 62
     4
 10
 108.39367311072147
 20
 321.69205520521058
 11
 107.26432102583931
 21
 326.14426108756328
  0
LINE
  8
2
  6
CONTINUOUS
 62
     4
 10
 100.39367311071919
 20
 335.04867285226936
 11
 101.5230251956018
 21
 339.50087873462229
  0
LINE
  8
2
  6
CONTINUOUS
 62
     4
 10
 100.39367311071919
 20
 330.59646696991666
 11
 101.5230251956018
 21
 335.04867285226936
  0
LINE
  8
2
  6
CONTINUOUS
 62
     4
 10
 100.39367311071919
 20
 326.14426108756373
 11
 101.5230251956018
 21
 330.59646696991643
  0
LINE
  8
2
  6
CONTINUOUS
 62
     4
 10
 100.39367311071919
 20
 321.69205520521081
 11
 101.5230251956018
 21
 326.14426108756351
  0
LINE
  8
2
  6
CONTINUOUS
 62
     4
 10
 113.04367311072156
 20
 310.2575044618365
 11
 113.04367311072065
 21
 295.50087873462138
  0
LINE
  8
2
  6
CONTINUOUS
 62
     4
 10
 95.743673110720465
 20
 310.25750446183605
 11
 95.74367311072001
 21
 295.50087873462343
  0
ARC
  8
0
  6
CONTINUOUS
 62
     4
 10
 104.39367311072101
 20
 302.31922836293251
 40
 11.740473901101254
 50
 42.543218573812567
 51
 137.45678449665812
  0
LINE
  8
0
  6
CONTINUOUS
 62
     4
 10
 98.393673110721011
 20
 312.41074596052107
 11
 98.393673110721011
 21
 304.41074596052107
  0
LINE
  8
0
  6
CONTINUOUS
 62
     4
 10
 110.39367311072101
 20
 304.41074596052107
 11
 110.39367311072101
 21
 312.41074596052107
  0
LINE
  8
0
  6
CONTINUOUS
 62
     4
 10
 98.393673110721011
 20
 304.41074596052107
 11
 110.39367311072101
 21
 304.41074596052107
  0
LINE
  8
0
  6
CONTINUOUS
 62
     4
 10
 95.743673110718873
 20
 310.25750446183628
 11
 98.393673110721011
 21
 310.25750446183628
  0
LINE
  8
0
  6
CONTINUOUS
 62
     4
 10
 113.04367311072019
 20
 310.2575044618365
 11
 110.39367311072101
 21
 310.2575044618365
  0
LINE
  8
2
  6
CONTINUOUS
 62
     4
 10
 108.39367311072101
 20
 217.309702264034
 11
 108.39367311072056
 21
 225.64447096991626
  0
LINE
  8
2
  6
CONTINUOUS
 62
     4
 10
 100.39367311072056
 20
 217.30970226403377
 11
 100.39367311072056
 21
 225.6444709699166
  0
LINE
  8
2
  6
CONTINUOUS
 62
     4
 10
 101.5230251956018
 20
 199.50087873462184
 11
 107.26432102583976
 21
 199.50087873462229
  0
LINE
  8
2
  6
CONTINUOUS
 62
     4
 10
 100.39367311072101
 20
 203.95308461697476
 11
 108.39367311072147
 21
 203.95308461697499
  0
LINE
  8
2
  6
CONTINUOUS
 62
     4
 10
 100.39367311072101
 20
 208.40529049932769
 11
 108.39367311072147
 21
 208.40529049932792
  0
LINE
  8
2
  6
CONTINUOUS
 62
     4
 10
 100.39367311072101
 20
 212.85749638168062
 11
 108.39367311072147
 21
 212.85749638168085
  0
LINE
  8
2
  6
CONTINUOUS
 62
     4
 10
 100.39367311072101
 20
 217.30970226403377
 11
 108.39367311072147
 21
 217.309702264034
  0
LINE
  8
2
  6
CONTINUOUS
 62
     4
 10
 108.39367311072147
 20
 203.95308461697499
 11
 107.26432102583976
 21
 199.50087873462229
  0
LINE
  8
2
  6
CONTINUOUS
 62
     4
 10
 108.39367311072147
 20
 208.40529049932769
 11
 107.26432102583931
 21
 203.95308461697499
  0
LINE
  8
2
  6
CONTINUOUS
 62
     4
 10
 108.39367311072147
 20
 212.85749638168062
 11
 107.26432102583931
 21
 208.40529049932792
  0
LINE
  8
2
  6
CONTINUOUS
 62
     4
 10
 108.39367311072147
 20
 217.30970226403355
 11
 107.26432102583931
 21
 212.85749638168085
  0
LINE
  8
2
  6
CONTINUOUS
 62
     4
 10
 100.39367311071919
 20
 203.95308461697476
 11
 101.5230251956018
 21
 199.50087873462184
  0
LINE
  8
2
  6
CONTINUOUS
 62
     4
 10
 100.39367311071919
 20
 208.40529049932746
 11
 101.5230251956018
 21
 203.95308461697476
  0
LINE
  8
2
  6
CONTINUOUS
 62
     4
 10
 100.39367311071919
 20
 212.85749638168039
 11
 101.5230251956018
 21
 208.40529049932769
  0
LINE
  8
2
  6
CONTINUOUS
 62
     4
 10
 100.39367311071919
 20
 217.30970226403332
 11
 101.5230251956018
 21
 212.85749638168062
  0
LINE
  8
2
  6
CONTINUOUS
 62
     4
 10
 113.04367311072156
 20
 228.74425300740762
 11
 113.04367311072065
 21
 243.50087873462272
  0
LINE
  8
2
  6
CONTINUOUS
 62
     4
 10
 95.743673110720465
 20
 228.74425300740808
 11
 95.74367311072001
 21
 243.50087873462073
  0
ARC
  8
0
  6
CONTINUOUS
 62
     4
 10
 104.39367311072101
 20
 236.68252910631162
 40
 11.740473901101254
 50
-137.45678449665812
 51
-42.543218573812567
  0
LINE
  8
0
  6
CONTINUOUS
 62
     4
 10
 98.393673110721011
 20
 226.59101150872306
 11
 98.393673110721011
 21
 234.59101150872306
  0
LINE
  8
0
  6
CONTINUOUS
 62
     4
 10
 110.39367311072101
 20
 234.59101150872306
 11
 110.39367311072101
 21
 226.59101150872306
  0
LINE
  8
0
  6
CONTINUOUS
 62
     4
 10
 98.393673110721011
 20
 234.59101150872306
 11
 110.39367311072101
 21
 234.59101150872306
  0
LINE
  8
0
  6
CONTINUOUS
 62
     4
 10
 95.743673110718873
 20
 228.74425300740785
 11
 98.393673110721011
 21
 228.74425300740785
  0
LINE
  8
0
  6
CONTINUOUS
 62
     4
 10
 113.04367311072019
 20
 228.74425300740762
 11
 110.39367311072101
 21
 228.74425300740762
  0
LINE
  8
5
  6
CENTER
 62
     7
 10
 104.39367311072056
 20
 156.73389873462196
 11
 104.39367311072057
 21
 381.75116118503638
  0
POINT
  8
0
  6
CONTINUOUS
 62
     7
 10
-91.866432337434105
 20
-197.63796133567644
  0
POINT
  8
0
  6
CONTINUOUS
 62
     7
 10
-91.866432337434105
 20
-197.63796133567655
  0
LINE
  8
5
  6
CONTINUOUS
 62
     4
 10
-127.86644833743406
 20
-47.637938335676552
 11
-127.86644833743406
 21
-87.637941335676487
  0
LINE
  8
5
  6
CONTINUOUS
 62
     4
 10
-127.86644833743406
 20
-87.637941335676487
 11
-124.86643533743421
 21
-87.637941335676487
  0
LINE
  8
5
  6
CONTINUOUS
 62
     4
 10
-127.86644833743406
 20
-47.637938335676552
 11
-124.86643533743421
 21
-47.637938335676552
  0
LINE
  8
5
  6
CONTINUOUS
 62
     4
 10
-83.216432337434014
 20
-25.486967335676297
 11
-58.86642833743457
 21
-25.486967335676525
  0
LINE
  8
5
  6
CONTINUOUS
 62
     4
 10
-58.86642833743457
 20
-21.637961335676607
 11
-58.86642833743457
 21
-115.63793933567659
  0
LINE
  8
5
  6
CONTINUOUS
 62
     4
 10
-63.86642833743457
 20
-108.63793933567695
 11
-83.216432337434014
 21
-108.63793933567683
  0
ARC
  8
5
  6
CONTINUOUS
 62
     4
 10
-63.86642833743457
 20
-103.63793933567695
 40
 5
 50
-90.000001535235242
 51
 0
  0
LINE
  8
5
  6
CONTINUOUS
 62
     4
 10
 32.133564662565789
 20
-138.63793033567651
 11
 32.133564662565789
 21
-197.63793833567649
  0
LINE
  8
5
  6
CONTINUOUS
 62
     4
 10
 32.133564662565789
 20
-197.63793833567649
 11
-87.866419337434252
 21
-197.63793833567649
  0
LINE
  8
5
  6
CONTINUOUS
 62
     4
 10
-87.866419337434252
 20
-197.63793833567649
 11
-87.866419337434252
 21
-138.63793033567651
  0
LINE
  8
5
  6
CONTINUOUS
 62
     4
 10
-87.866419337434252
 20
-138.63793033567651
 11
 32.133564662565789
 21
-138.63793033567651
  0
LINE
  8
5
  6
CONTINUOUS
 62
     4
 10
-41.866417337434484
 20
-113.63796133567632
 11
-41.866417337434484
 21
-138.63793033567651
  0
CIRCLE
  8
5
  6
CONTINUOUS
 62
     4
 10
-91.866432337434105
 20
-67.637961335676607
 40
 27.50001
  0
LINE
  8
5
  6
CONTINUOUS
 62
     4
 10
-119.86643533743421
 20
-115.63793933567659
 11
-95.866432337434105
 21
-115.63793933567605
  0
LINE
  8
5
  6
CONTINUOUS
 62
     4
 10
-124.86643533743421
 20
-110.63793933567661
 11
-124.86643533743421
 21
-30.486967335676525
  0
ARC
  8
5
  6
CONTINUOUS
 62
     4
 10
-119.86643533743421
 20
-110.63793933567661
 40
 5
 50
 180.00000307046898
 51
-90.000001535234816
  0
LINE
  8
5
  6
CONTINUOUS
 62
     4
 10
-119.86643533743421
 20
-108.63793933567683
 11
-100.5164323374342
 21
-108.63793933567649
  0
ARC
  8
5
  6
CONTINUOUS
 62
     4
 10
-119.86643533743421
 20
-103.63793933567683
 40
 5
 50
 180.00000307046898
 51
-90.000001535233864
  0
LINE
  8
5
  6
CONTINUOUS
 62
     4
 10
-119.86643533743421
 20
-25.486967335676525
 11
-100.5164323374342
 21
-25.486967335676297
  0
ARC
  8
5
  6
CONTINUOUS
 62
     4
 10
-119.86643533743421
 20
-30.486967335676525
 40
 5
 50
 90.000001535234361
 51
 180.00000307046898
  0
LINE
  8
5
  6
CENTER
 62
     7
 10
-91.866432337434105
 20
 22.070324443937864
 11
-91.866432337434105
 21
-204.526219507978
  0
LINE
  8
5
  6
CENTER
 62
     7
 10
-140.28354503459553
 20
-67.637961335676607
 11
 141.32414832201681
 21
-67.637961335676607
  0
LINE
  8
5
  6
CONTINUOUS
 62
     4
 10
-140.14167646605205
 20
-48.386945335676444
 11
-140.14167646605205
 21
-60.586945335676262
  0
LINE
  8
5
  6
CONTINUOUS
 62
     4
 10
-140.14167646605205
 20
-60.586945335676262
 11
-138.64167646605205
 21
-60.586945335676262
  0
LINE
  8
5
  6
CONTINUOUS
 62
     4
 10
-140.14167646605205
 20
-48.386945335676444
 11
-138.64167646605205
 21
-48.386945335676444
  0
LINE
  8
5
  6
CONTINUOUS
 62
     4
 10
-138.64167646605205
 20
-48.236945335676353
 11
-138.64167646605205
 21
-60.736945335676118
  0
LINE
  8
5
  6
CONTINUOUS
 62
     4
 10
-138.64167646605205
 20
-60.736945335676118
 11
-137.04167646605214
 21
-60.736945335676353
  0
LINE
  8
5
  6
CONTINUOUS
 62
     4
 10
-138.64167646605205
 20
-48.236945335676353
 11
-137.04167646605214
 21
-48.236945335676353
  0
LINE
  8
5
  6
CONTINUOUS
 62
     4
 10
-137.04167646605214
 20
-48.236945335676353
 11
-137.04167646605214
 21
-60.736945335676353
  0
LINE
  8
5
  6
CONTINUOUS
 62
     4
 10
-140.14167646605205
 20
-49.236945335676353
 11
-141.36366834027643
 21
-49.236945335676353
  0
ARC
  8
5
  6
CONTINUOUS
 62
     4
 10
-141.36366834027643
 20
-51.536945335676307
 40
 2.2999999999999998
 50
 90.000001535234489
 51
 165.39601255153119
  0
ARC
  8
5
  6
CONTINUOUS
 62
     4
 10
-130.04167646605214
 20
-54.486945335676126
 40
 14
 50
 165.39601255153119
 51
-165.39601255153127
  0
ARC
  8
5
  6
CONTINUOUS
 62
     4
 10
-141.36366834027643
 20
-57.436945335676171
 40
 2.2999999999999998
 50
-165.39601255153127
 51
-90.000001535234532
  0
LINE
  8
5
  6
CONTINUOUS
 62
     4
 10
-141.36366834027643
 20
-59.736945335676118
 11
-140.14167646605205
 21
-59.736945335676118
  0
LINE
  8
5
  6
CONTINUOUS
 62
     4
 10
-137.04167646605214
 20
-57.486945335676353
 11
-127.8664483374336
 21
-57.486945335677945
  0
LINE
  8
5
  6
CONTINUOUS
 62
     4
 10
-137.04167646605214
 20
-51.486945335676353
 11
-127.86644833743406
 21
-51.486945335676353
  0
LINE
  8
5
  6
CONTINUOUS
 62
     4
 10
-143.82113813011978
 20
-52.623809910927491
 11
-153.37858813140923
 21
-44.851473040996495
  0
LINE
  8
5
  6
CONTINUOUS
 62
     4
 10
-152.78611515083225
 20
-36.763351801811211
 11
-143.73299361026642
 21
-39.934763373518251
  0
LINE
  8
5
  6
CONTINUOUS
 62
     4
 10
-140.39589094643446
 20
-44.340123215913707
 11
-140.14167646605205
 21
-48.386945335676444
  0
ARC
  8
5
  6
CONTINUOUS
 62
     4
 10
-145.38605470166607
 20
-44.653596812844341
 40
 5
 50
 3.5945002814382283
 51
 70.694062354258691
  0
LINE
  8
5
  6
CONTINUOUS
 62
     4
 10
-154.11672736909799
 20
-43.299794138474397
 11
-154.11672736911208
 21
-37.707118489677839
  0
ARC
  8
5
  6
CONTINUOUS
 62
     4
 10
-153.11672736911208
 20
-37.707118489676475
 40
 1
 50
 70.694062354259657
 51
-180.00000307038351
  0
ARC
  8
5
  6
CONTINUOUS
 62
     4
 10
-152.11672736909799
 20
-43.29979413847235
 40
 2
 50
-180.00000307040435
 51
-129.11879997657223
  0
LINE
  8
5
  6
CONTINUOUS
 62
     4
 10
-143.82113813011978
 20
-56.35008076042476
 11
-153.37858813140969
 21
-64.122417630355756
  0
LINE
  8
5
  6
CONTINUOUS
 62
     4
 10
-152.7861151508327
 20
-72.21053886954104
 11
-143.73299361026642
 21
-69.039127297834
  0
LINE
  8
5
  6
CONTINUOUS
 62
     4
 10
-140.39589094643446
 20
-64.633767455438544
 11
-140.14167646605205
 21
-60.5869453356758
  0
ARC
  8
5
  6
CONTINUOUS
 62
     4
 10
-145.38605470166607
 20
-64.32029385850791
 40
 5
 50
-70.694062354258776
 51
-3.5945002814382696
  0
LINE
  8
5
  6
CONTINUOUS
 62
     4
 10
-154.11672736909799
 20
-65.674096532877854
 11
-154.11672736911254
 21
-71.266772181674412
  0
ARC
  8
5
  6
CONTINUOUS
 62
     4
 10
-153.11672736911254
 20
-71.266772181675776
 40
 1
 50
 180.0000030703834
 51
-70.694062354259756
  0
ARC
  8
5
  6
CONTINUOUS
 62
     4
 10
-152.11672736909799
 20
-65.674096532879901
 40
 2
 50
 129.11879997657215
 51
 180.00000307040429
  0
LINE
  8
5
  6
CENTER
 62
     7
 10
-155.66454782629256
 20
-54.486945335676126
 11
-127.86644833743406
 21
-54.486945335676126
  0
ARC
  8
5
  6
CENTER
 62
     7
 10
-91.866432337434105
 20
-67.637961335676607
 40
 19.525661704579537
 50
 113.20399878552088
 51
 162.926876902787
  0
ARC
  8
5
  6
CENTER
 62
     7
 10
-91.866432337434105
 20
-67.637961335676607
 40
 19.525661704579537
 50
-156.48752480061461
 51
-113.51623423160358
  0
ARC
  8
5
  6
CENTER
 62
     7
 10
-91.866432337434105
 20
-67.637961335676607
 40
 19.525661704579537
 50
-74.920029006336648
 51
-19.773061350085801
  0
ARC
  8
5
  6
CENTER
 62
     7
 10
-91.866432337434105
 20
-67.637961335676607
 40
 19.525661704579537
 50
 21.809311624908876
 51
 67.652606484585917
  0
LINE
  8
5
  6
CENTER
 62
     7
 10
-100.950665353278
 20
-58.553728319832715
 11
-110.34548272644082
 21
-49.158910946669891
  0
LINE
  8
5
  6
CONTINUOUS
 62
     7
 10
-105.67316013589692
 20
-50.944483537213898
 11
-108.17315897027169
 21
-52.387858537213731
  0
LINE
  8
5
  6
CONTINUOUS
 62
     7
 10
-108.17315897027169
 20
-52.387858537213731
 11
-108.17315897027169
 21
-55.274608537213851
  0
LINE
  8
5
  6
CONTINUOUS
 62
     7
 10
-108.17315897027169
 20
-55.274608537213851
 11
-105.67316013589692
 21
-56.717983537213911
  0
LINE
  8
5
  6
CONTINUOUS
 62
     7
 10
-105.67316013589692
 20
-56.717983537213911
 11
-103.17316130152216
 21
-55.274608537213851
  0
LINE
  8
5
  6
CONTINUOUS
 62
     7
 10
-103.17316130152216
 20
-55.274608537213851
 11
-103.17316130152216
 21
-52.387858537213731
  0
LINE
  8
5
  6
CONTINUOUS
 62
     7
 10
-103.17316130152216
 20
-52.387858537213731
 11
-105.67316013589692
 21
-50.944483537213898
  0
CIRCLE
  8
5
  6
CONTINUOUS
 62
     7
 10
-105.67316013589692
 20
-53.831233537213791
 40
 5
  0
CIRCLE
  8
5
  6
CONTINUOUS
 62
     7
 10
-105.67316013589692
 20
-53.831233537213791
 40
 4.3071793539447469
  0
CIRCLE
  8
5
  6
CONTINUOUS
 62
     7
 10
-78.059704538971289
 20
-53.831233537213791
 40
 4.5
  0
LINE
  8
5
  6
CONTINUOUS
 62
     7
 10
-79.756760842863002
 20
-55.528289841105504
 11
-76.36264823508003
 21
-52.134177233322305
  0
LINE
  8
5
  6
CONTINUOUS
 62
     7
 10
-76.36264823508003
 20
-55.528289841105504
 11
-79.756760842863002
 21
-52.134177233322305
  0
CIRCLE
  8
5
  6
CONTINUOUS
 62
     7
 10
-105.67316013589692
 20
-81.444689134139139
 40
 4.5
  0
LINE
  8
5
  6
CONTINUOUS
 62
     7
 10
-103.97610383200521
 20
-79.747632830247539
 11
-107.37021643978818
 21
-83.141745438030739
  0
LINE
  8
5
  6
CONTINUOUS
 62
     7
 10
-107.37021643978818
 20
-79.747632830247539
 11
-103.97610383200521
 21
-83.141745438030739
  0
LINE
  8
5
  6
CENTER
 62
     7
 10
-82.782199321590213
 20
-76.722194351520329
 11
-73.387381948427844
 21
-86.117011724683266
  0
LINE
  8
5
  6
CONTINUOUS
 62
     7
 10
-78.059704538971289
 20
-84.331439134139146
 11
-75.559705704596524
 21
-82.888064134139199
  0
LINE
  8
5
  6
CONTINUOUS
 62
     7
 10
-75.559705704596524
 20
-82.888064134139199
 11
-75.559705704596524
 21
-80.001314134139193
  0
LINE
  8
5
  6
CONTINUOUS
 62
     7
 10
-75.559705704596524
 20
-80.001314134139193
 11
-78.059704538971289
 21
-78.557939134139133
  0
LINE
  8
5
  6
CONTINUOUS
 62
     7
 10
-78.059704538971289
 20
-78.557939134139133
 11
-80.559703373346053
 21
-80.001314134139193
  0
LINE
  8
5
  6
CONTINUOUS
 62
     7
 10
-80.559703373346053
 20
-80.001314134139193
 11
-80.559703373346053
 21
-82.888064134139199
  0
LINE
  8
5
  6
CONTINUOUS
 62
     7
 10
-80.559703373346053
 20
-82.888064134139199
 11
-78.059704538971289
 21
-84.331439134139146
  0
CIRCLE
  8
5
  6
CONTINUOUS
 62
     7
 10
-78.059704538971289
 20
-81.444689134139139
 40
 5
  0
CIRCLE
  8
5
  6
CONTINUOUS
 62
     7
 10
-78.059704538971289
 20
-81.444689134139139
 40
 4.3071793539447469
  0
LINE
  8
5
  6
CONTINUOUS
 62
     4
 10
-118.86643233743411
 20
-35.637961335676607
 11
-100.5164323374342
 21
-35.63796133567638
  0
LINE
  8
5
  6
CONTINUOUS
 62
     4
 10
-83.216432337434014
 20
-35.63796133567638
 11
-64.866432337434105
 21
-35.63796133567638
  0
LINE
  8
5
  6
CONTINUOUS
 62
     4
 10
-59.866432337434098
 20
-40.63796133567638
 11
-59.866432337434098
 21
-94.63796133567655
  0
ARC
  8
5
  6
CONTINUOUS
 62
     4
 10
-64.866432337434105
 20
-40.63796133567638
 40
 5
 50
 0
 51
 90.000001535234489
  0
LINE
  8
5
  6
CONTINUOUS
 62
     4
 10
-64.866432337434105
 20
-99.63796133567655
 11
-83.216432337434014
 21
-99.637961335676323
  0
ARC
  8
5
  6
CONTINUOUS
 62
     4
 10
-64.866432337434105
 20
-94.63796133567655
 40
 5
 50
-90.00000153523456
 51
 0
  0
LINE
  8
5
  6
CONTINUOUS
 62
     4
 10
-100.5164323374342
 20
-99.63796133567655
 11
-118.86643233743411
 21
-99.637961335676323
  0
LINE
  8
5
  6
CONTINUOUS
 62
     4
 10
-123.86643233743411
 20
-94.637961335676323
 11
-123.86643233743411
 21
-40.637961335676607
  0
ARC
  8
5
  6
CONTINUOUS
 62
     4
 10
-118.86643233743411
 20
-94.637961335676323
 40
 5
 50
 180.00000307046898
 51
-90.00000153523456
  0
ARC
  8
5
  6
CONTINUOUS
 62
     4
 10
-118.86643233743411
 20
-40.637961335676607
 40
 5
 50
 90.000001535234489
 51
 180.00000307046898
  0
LINE
  8
5
  6
CENTER
 62
     7
 10
-66.866432337434105
 20
-49.084448367877428
 11
-66.866432337434105
 21
-36.191474303475559
  0
LINE
  8
5
  6
CENTER
 62
     7
 10
-60.419945305233277
 20
-42.637961335676607
 11
-73.312919369634926
 21
-42.637961335676607
  0
LINE
  8
5
  6
CONTINUOUS
 62
     7
 10
-66.866432337434105
 20
-45.524711335676272
 11
-64.366433503059341
 21
-44.08133633567644
  0
LINE
  8
5
  6
CONTINUOUS
 62
     7
 10
-64.366433503059341
 20
-44.08133633567644
 11
-64.366433503059341
 21
-41.19458633567632
  0
LINE
  8
5
  6
CONTINUOUS
 62
     7
 10
-64.366433503059341
 20
-41.19458633567632
 11
-66.866432337434105
 21
-39.75121133567626
  0
LINE
  8
5
  6
CONTINUOUS
 62
     7
 10
-66.866432337434105
 20
-39.75121133567626
 11
-69.36643117180887
 21
-41.19458633567632
  0
LINE
  8
5
  6
CONTINUOUS
 62
     7
 10
-69.36643117180887
 20
-41.19458633567632
 11
-69.36643117180887
 21
-44.081336335676212
  0
LINE
  8
5
  6
CONTINUOUS
 62
     7
 10
-69.36643117180887
 20
-44.081336335676212
 11
-66.866432337434105
 21
-45.524711335676272
  0
CIRCLE
  8
5
  6
CONTINUOUS
 62
     7
 10
-66.866432337434105
 20
-42.637961335676152
 40
 5
  0
CIRCLE
  8
5
  6
CONTINUOUS
 62
     7
 10
-66.866432337434105
 20
-42.637961335676152
 40
 4.3071793539447469
  0
LINE
  8
5
  6
CENTER
 62
     7
 10
-116.86643233743365
 20
-49.084448367877428
 11
-116.86643233743365
 21
-36.191474303475559
  0
LINE
  8
5
  6
CENTER
 62
     7
 10
-123.31291936963491
 20
-42.63796133567638
 11
-110.41994530523283
 21
-42.637961335676607
  0
LINE
  8
5
  6
CONTINUOUS
 62
     7
 10
-116.86643233743411
 20
-45.524711335676272
 11
-119.36643117180887
 21
-44.081336335676212
  0
LINE
  8
5
  6
CONTINUOUS
 62
     7
 10
-119.36643117180887
 20
-44.081336335676212
 11
-119.36643117180887
 21
-41.19458633567632
  0
LINE
  8
5
  6
CONTINUOUS
 62
     7
 10
-119.36643117180887
 20
-41.19458633567632
 11
-116.86643233743411
 21
-39.75121133567626
  0
LINE
  8
5
  6
CONTINUOUS
 62
     7
 10
-116.86643233743411
 20
-39.75121133567626
 11
-114.36643350305934
 21
-41.19458633567632
  0
LINE
  8
5
  6
CONTINUOUS
 62
     7
 10
-114.36643350305934
 20
-41.19458633567632
 11
-114.36643350305934
 21
-44.081336335676212
  0
LINE
  8
5
  6
CONTINUOUS
 62
     7
 10
-114.36643350305934
 20
-44.081336335676212
 11
-116.86643233743411
 21
-45.524711335676272
  0
CIRCLE
  8
5
  6
CONTINUOUS
 62
     7
 10
-116.86643233743411
 20
-42.637961335676152
 40
 5
  0
CIRCLE
  8
5
  6
CONTINUOUS
 62
     7
 10
-116.86643233743411
 20
-42.637961335676152
 40
 4.3071793539447469
  0
LINE
  8
5
  6
CENTER
 62
     7
 10
-66.866432337434105
 20
-86.191474303475729
 11
-66.866432337434105
 21
-99.084448367877371
  0
LINE
  8
5
  6
CENTER
 62
     7
 10
-60.419945305233277
 20
-92.63796133567655
 11
-73.312919369634926
 21
-92.63796133567655
  0
LINE
  8
5
  6
CONTINUOUS
 62
     7
 10
-66.866432337434105
 20
-89.751211335676771
 11
-64.366433503059341
 21
-91.194586335676718
  0
LINE
  8
5
  6
CONTINUOUS
 62
     7
 10
-64.366433503059341
 20
-91.194586335676718
 11
-64.366433503059341
 21
-94.08133633567661
  0
LINE
  8
5
  6
CONTINUOUS
 62
     7
 10
-64.366433503059341
 20
-94.08133633567661
 11
-66.866432337434105
 21
-95.52471133567667
  0
LINE
  8
5
  6
CONTINUOUS
 62
     7
 10
-66.866432337434105
 20
-95.52471133567667
 11
-69.36643117180887
 21
-94.081336335676724
  0
LINE
  8
5
  6
CONTINUOUS
 62
     7
 10
-69.36643117180887
 20
-94.081336335676724
 11
-69.36643117180887
 21
-91.194586335676718
  0
LINE
  8
5
  6
CONTINUOUS
 62
     7
 10
-69.36643117180887
 20
-91.194586335676718
 11
-66.866432337434105
 21
-89.751211335676771
  0
CIRCLE
  8
5
  6
CONTINUOUS
 62
     7
 10
-66.866432337434105
 20
-92.637961335676778
 40
 5
  0
CIRCLE
  8
5
  6
CONTINUOUS
 62
     7
 10
-66.866432337434105
 20
-92.637961335676778
 40
 4.3071793539447469
  0
LINE
  8
5
  6
CENTER
 62
     7
 10
-116.86643233743365
 20
-86.191474303475729
 11
-116.86643233743365
 21
-99.084448367877371
  0
LINE
  8
5
  6
CENTER
 62
     7
 10
-123.31291936963491
 20
-92.63796133567655
 11
-110.41994530523283
 21
-92.63796133567655
  0
LINE
  8
5
  6
CONTINUOUS
 62
     7
 10
-116.86643233743411
 20
-89.751211335676771
 11
-119.36643117180887
 21
-91.194586335676718
  0
LINE
  8
5
  6
CONTINUOUS
 62
     7
 10
-119.36643117180887
 20
-91.194586335676718
 11
-119.36643117180887
 21
-94.081336335676724
  0
LINE
  8
5
  6
CONTINUOUS
 62
     7
 10
-119.36643117180887
 20
-94.081336335676724
 11
-116.86643233743411
 21
-95.524711335676784
  0
LINE
  8
5
  6
CONTINUOUS
 62
     7
 10
-116.86643233743411
 20
-95.524711335676784
 11
-114.36643350305934
 21
-94.081336335676724
  0
LINE
  8
5
  6
CONTINUOUS
 62
     7
 10
-114.36643350305934
 20
-94.081336335676724
 11
-114.36643350305934
 21
-91.194586335676718
  0
LINE
  8
5
  6
CONTINUOUS
 62
     7
 10
-114.36643350305934
 20
-91.194586335676718
 11
-116.86643233743411
 21
-89.751211335676771
  0
CIRCLE
  8
5
  6
CONTINUOUS
 62
     7
 10
-116.86643233743411
 20
-92.637961335676778
 40
 5
  0
CIRCLE
  8
5
  6
CONTINUOUS
 62
     7
 10
-116.86643233743411
 20
-92.637961335676778
 40
 4.3071793539447469
  0
LINE
  8
5
  6
CENTER
 62
     7
 10
-27.866427337434232
 20
-185.62140781380265
 11
-27.866427337434232
 21
-211.21698623956979
  0
LINE
  8
5
  6
CONTINUOUS
 62
     4
 10
 32.133564662565789
 20
-195.63793833567649
 11
-87.866419337434252
 21
-195.63793833567649
  0
POINT
  8
5
  6
CONTINUOUS
 62
     7
 10
-91.866432337434105
 20
-197.63796133567655
  0
LINE
  8
5
  6
CONTINUOUS
 62
     4
 10
-36.86643233743456
 20
-21.63796133567638
 11
-36.86643233743456
 21
-113.63796133567644
  0
LINE
  8
5
  6
CONTINUOUS
 62
     4
 10
-36.86643233743456
 20
-111.63796133567644
 11
 23.13356766256544
 21
-111.63796133567655
  0
LINE
  8
5
  6
CONTINUOUS
 62
     4
 10
-36.86643233743456
 20
-23.63796133567638
 11
 23.133567662565895
 21
-23.637961335676152
  0
LINE
  8
5
  6
CONTINUOUS
 62
     4
 10
 128.13356766256544
 20
-25.137961335676152
 11
 128.13356766256544
 21
-110.13796133567621
  0
LINE
  8
5
  6
CONTINUOUS
 62
     4
 10
 128.13356766256544
 20
-110.13796133567632
 11
 23.13356766256544
 21
-110.13796133567632
  0
LINE
  8
5
  6
CONTINUOUS
 62
     4
 10
 31.133567662565895
 20
-110.13796133567632
 11
 31.133567662565895
 21
-25.137961335676152
  0
LINE
  8
5
  6
CONTINUOUS
 62
     4
 10
-36.86643233743456
 20
-23.63796133567638
 11
 23.13356766256544
 21
-23.637961335676152
  0
LINE
  8
5
  6
CONTINUOUS
 62
     4
 10
 128.13356766256544
 20
-25.13796133567638
 11
 23.13356766256544
 21
-25.13796133567638
  0
LINE
  8
5
  6
CONTINUOUS
 62
     4
 10
 23.133567662565895
 20
-23.637961335676152
 11
 23.133567662565895
 21
-111.63796133567655
  0
LINE
  8
5
  6
CONTINUOUS
 62
     4
 10
-36.86643233743456
 20
-21.63796133567638
 11
-58.86642833743457
 21
-21.63796133567638
  0
LINE
  8
5
  6
CONTINUOUS
 62
     4
 10
-36.86643233743456
 20
-113.63796133567644
 11
-58.86642833743457
 21
-113.63796133567644
  0
LINE
  8
5
  6
CONTINUOUS
 62
     4
 10
-58.86642833743457
 20
-115.63793933567659
 11
-87.86643233743365
 21
-115.63793933567605
  0
LINE
  8
2
  6
CONTINUOUS
 62
     4
 10
-87.86643233743365
 20
-15.446784865088548
 11
-87.866432337434105
 21
-23.7815535709708
  0
LINE
  8
2
  6
CONTINUOUS
 62
     4
 10
-95.866432337434105
 20
-15.446784865088317
 11
-95.866432337434105
 21
-23.781553570971141
  0
LINE
  8
2
  6
CONTINUOUS
 62
     4
 10
-94.737080252552857
 20
 2.3620386643236202
 11
-88.995784422314898
 21
 2.3620386643231654
  0
LINE
  8
2
  6
CONTINUOUS
 62
     4
 10
-95.86643233743365
 20
-2.0901672180293076
 11
-87.866432337433196
 21
-2.090167218029535
  0
LINE
  8
2
  6
CONTINUOUS
 62
     4
 10
-95.86643233743365
 20
-6.5423731003822354
 11
-87.866432337433196
 21
-6.5423731003824628
  0
LINE
  8
2
  6
CONTINUOUS
 62
     4
 10
-95.86643233743365
 20
-10.994578982735163
 11
-87.866432337433196
 21
-10.994578982735391
  0
LINE
  8
2
  6
CONTINUOUS
 62
     4
 10
-95.86643233743365
 20
-15.446784865088317
 11
-87.866432337433196
 21
-15.446784865088548
  0
LINE
  8
2
  6
CONTINUOUS
 62
     4
 10
-87.866432337433196
 20
-2.090167218029535
 11
-88.995784422314898
 21
 2.3620386643231654
  0
LINE
  8
2
  6
CONTINUOUS
 62
     4
 10
-87.866432337433196
 20
-6.5423731003822354
 11
-88.995784422315353
 21
-2.090167218029535
  0
LINE
  8
2
  6
CONTINUOUS
 62
     4
 10
-87.866432337433196
 20
-10.994578982735163
 11
-88.995784422315353
 21
-6.5423731003824628
  0
LINE
  8
2
  6
CONTINUOUS
 62
     4
 10
-87.866432337433196
 20
-15.446784865088089
 11
-88.995784422315353
 21
-10.994578982735391
  0
LINE
  8
2
  6
CONTINUOUS
 62
     4
 10
-95.866432337435469
 20
-2.0901672180293076
 11
-94.737080252552857
 21
 2.3620386643236202
  0
LINE
  8
2
  6
CONTINUOUS
 62
     4
 10
-95.866432337435469
 20
-6.542373100382008
 11
-94.737080252552857
 21
-2.0901672180293076
  0
LINE
  8
2
  6
CONTINUOUS
 62
     4
 10
-95.866432337435469
 20
-10.994578982734936
 11
-94.737080252552857
 21
-6.5423731003822354
  0
LINE
  8
2
  6
CONTINUOUS
 62
     4
 10
-95.866432337435469
 20
-15.446784865087862
 11
-94.737080252552857
 21
-10.994578982735163
  0
LINE
  8
2
  6
CONTINUOUS
 62
     4
 10
-83.216432337433105
 20
-26.881335608462166
 11
-83.216432337433986
 21
-41.533784466828635
  0
LINE
  8
2
  6
CONTINUOUS
 62
     4
 10
-100.5164323374342
 20
-26.881335608462621
 11
-100.51643233743465
 21
-41.533784466828777
  0
ARC
  8
0
  6
CONTINUOUS
 62
     4
 10
-91.86643233743365
 20
-34.81961170736615
 40
 11.740473901101254
 50
 42.543218573812567
 51
 137.45678449665812
  0
LINE
  8
0
  6
CONTINUOUS
 62
     4
 10
-97.86643233743365
 20
-24.728094109777587
 11
-97.86643233743365
 21
-32.728094109777587
  0
LINE
  8
0
  6
CONTINUOUS
 62
     4
 10
-85.86643233743365
 20
-32.728094109777587
 11
-85.86643233743365
 21
-24.728094109777587
  0
LINE
  8
0
  6
CONTINUOUS
 62
     4
 10
-97.86643233743365
 20
-32.728094109777587
 11
-85.86643233743365
 21
-32.728094109777587
  0
LINE
  8
0
  6
CONTINUOUS
 62
     4
 10
-100.51643233743579
 20
-26.881335608462408
 11
-97.86643233743365
 21
-26.881335608462408
  0
LINE
  8
0
  6
CONTINUOUS
 62
     4
 10
-83.216432337434469
 20
-26.881335608462166
 11
-85.86643233743365
 21
-26.881335608462166
  0
LINE
  8
2
  6
CONTINUOUS
 62
     4
 10
-87.86643233743365
 20
-119.82913780626468
 11
-87.866432337434105
 21
-111.49436910038241
  0
LINE
  8
2
  6
CONTINUOUS
 62
     4
 10
-95.866432337434105
 20
-119.82913780626488
 11
-95.866432337434105
 21
-111.49436910038207
  0
LINE
  8
2
  6
CONTINUOUS
 62
     4
 10
-94.737080252552857
 20
-137.63796133567683
 11
-88.995784422314898
 21
-137.63796133567638
  0
LINE
  8
2
  6
CONTINUOUS
 62
     4
 10
-95.86643233743365
 20
-133.18575545332391
 11
-87.866432337433196
 21
-133.18575545332368
  0
LINE
  8
2
  6
CONTINUOUS
 62
     4
 10
-95.86643233743365
 20
-128.73354957097098
 11
-87.866432337433196
 21
-128.73354957097075
  0
LINE
  8
2
  6
CONTINUOUS
 62
     4
 10
-95.86643233743365
 20
-124.28134368861807
 11
-87.866432337433196
 21
-124.28134368861782
  0
LINE
  8
2
  6
CONTINUOUS
 62
     4
 10
-95.86643233743365
 20
-119.82913780626488
 11
-87.866432337433196
 21
-119.82913780626468
  0
LINE
  8
2
  6
CONTINUOUS
 62
     4
 10
-87.866432337433196
 20
-133.18575545332368
 11
-88.995784422314898
 21
-137.63796133567638
  0
LINE
  8
2
  6
CONTINUOUS
 62
     4
 10
-87.866432337433196
 20
-128.73354957097098
 11
-88.995784422315353
 21
-133.18575545332368
  0
LINE
  8
2
  6
CONTINUOUS
 62
     4
 10
-87.866432337433196
 20
-124.28134368861807
 11
-88.995784422315353
 21
-128.73354957097075
  0
LINE
  8
2
  6
CONTINUOUS
 62
     4
 10
-87.866432337433196
 20
-119.82913780626511
 11
-88.995784422315353
 21
-124.28134368861782
  0
LINE
  8
2
  6
CONTINUOUS
 62
     4
 10
-95.866432337435469
 20
-133.18575545332391
 11
-94.737080252552857
 21
-137.63796133567683
  0
LINE
  8
2
  6
CONTINUOUS
 62
     4
 10
-95.866432337435469
 20
-128.73354957097121
 11
-94.737080252552857
 21
-133.18575545332391
  0
LINE
  8
2
  6
CONTINUOUS
 62
     4
 10
-95.866432337435469
 20
-124.28134368861829
 11
-94.737080252552857
 21
-128.73354957097098
  0
LINE
  8
2
  6
CONTINUOUS
 62
     4
 10
-95.866432337435469
 20
-119.82913780626535
 11
-94.737080252552857
 21
-124.28134368861807
  0
LINE
  8
2
  6
CONTINUOUS
 62
     4
 10
-83.216432337433105
 20
-108.39458706289105
 11
-83.216432337433986
 21
-93.742138204524579
  0
LINE
  8
2
  6
CONTINUOUS
 62
     4
 10
-100.5164323374342
 20
-108.39458706289059
 11
-100.51643233743465
 21
-93.742138204524437
  0
ARC
  8
0
  6
CONTINUOUS
 62
     4
 10
-91.86643233743365
 20
-100.45631096398706
 40
 11.740473901101254
 50
-137.45678449665812
 51
-42.543218573812567
  0
LINE
  8
0
  6
CONTINUOUS
 62
     4
 10
-97.86643233743365
 20
-110.54782856157563
 11
-97.86643233743365
 21
-102.54782856157563
  0
LINE
  8
0
  6
CONTINUOUS
 62
     4
 10
-85.86643233743365
 20
-102.54782856157563
 11
-85.86643233743365
 21
-110.54782856157563
  0
LINE
  8
0
  6
CONTINUOUS
 62
     4
 10
-97.86643233743365
 20
-102.54782856157563
 11
-85.86643233743365
 21
-102.54782856157563
  0
LINE
  8
0
  6
CONTINUOUS
 62
     4
 10
-100.51643233743579
 20
-108.39458706289081
 11
-97.86643233743365
 21
-108.39458706289081
  0
LINE
  8
0
  6
CONTINUOUS
 62
     4
 10
-83.216432337434469
 20
-108.39458706289105
 11
-85.86643233743365
 21
-108.39458706289105
  0
LINE
  8
176
  6
CONTINUOUS
 62
     6
 10
-95.606326889279444
 20
 126.38612944131177
 11
-95.606326889279444
 21
 112.82087873462189
  0
LINE
  8
176
  6
CONTINUOUS
 62
     6
 10
-105.60632388927934
 20
 136.82087873462189
 11
-105.60632388927934
 21
 112.82087873462189
  0
LINE
  8
176
  6
CONTINUOUS
 62
     6
 10
-105.60632388927934
 20
 115.50087873462191
 11
-95.606326889279444
 21
 115.50087873462191
  0
TEXT
  8
176
  6
CONTINUOUS
 62
     96
 10
-133.32632388927934
 20
 116.82087873462187
 11
-118.92632388927933
 21
 116.82087873462187
 40
 9
 41
 0.8
  1
10
 50
 0
 72
  5
  0
LINE
  8
176
  6
CONTINUOUS
 62
     6
 10
-140.80632388927933
 20
 115.50087873462191
 11
-105.60632388927934
 21
 115.50087873462191
  0
LINE
  8
176
  6
CONTINUOUS
 62
     6
 10
-105.60632388927934
 20
 115.50087873462191
 11
-112.94243089478287
 21
 117.06021641575508
  0
LINE
  8
176
  6
CONTINUOUS
 62
     6
 10
-105.60632388927934
 20
 115.50087873462191
 11
-112.94243089478287
 21
 113.94154105348869
  0
LINE
  8
176
  6
CONTINUOUS
 62
     6
 10
 14.393673110720556
 20
 126.38612944131177
 11
 14.393673110720556
 21
 112.82087873462189
  0
LINE
  8
176
  6
CONTINUOUS
 62
     6
 10
-95.606326889279444
 20
 115.50087873462191
 11
 14.393673110720556
 21
 115.50087873462191
  0
LINE
  8
176
  6
CONTINUOUS
 62
     6
 10
-95.606326889279444
 20
 115.50087873462191
 11
-88.270219883775894
 21
 113.94154105348869
  0
LINE
  8
176
  6
CONTINUOUS
 62
     6
 10
-95.606326889279444
 20
 115.50087873462191
 11
-88.270219883775894
 21
 117.06021641575508
  0
LINE
  8
176
  6
CONTINUOUS
 62
     6
 10
 14.393673110720556
 20
 115.50087873462191
 11
 7.0575661052170133
 21
 117.06021641575508
  0
LINE
  8
176
  6
CONTINUOUS
 62
     6
 10
 14.393673110720556
 20
 115.50087873462191
 11
 7.0575661052170133
 21
 113.94154105348869
  0
TEXT
  8
176
  6
CONTINUOUS
 62
     96
 10
-51.406326889279441
 20
 116.82087873462187
 11
-29.806326889279443
 21
 116.82087873462187
 40
 9
 41
 0.8
  1
110
 50
 0
 72
  5
  0
LINE
  8
176
  6
CONTINUOUS
 62
     6
 10
 104.39367311072056
 20
 154.05389873462195
 11
 104.39367311072056
 21
 112.82087873462189
  0
LINE
  8
176
  6
CONTINUOUS
 62
     6
 10
 14.393673110720556
 20
 115.50087873462191
 11
 104.39367311072056
 21
 115.50087873462191
  0
LINE
  8
176
  6
CONTINUOUS
 62
     6
 10
 14.393673110720556
 20
 115.50087873462191
 11
 21.729780116224099
 21
 113.94154105348869
  0
LINE
  8
176
  6
CONTINUOUS
 62
     6
 10
 14.393673110720556
 20
 115.50087873462191
 11
 21.729780116224099
 21
 117.06021641575508
  0
LINE
  8
176
  6
CONTINUOUS
 62
     6
 10
 104.39367311072056
 20
 115.50087873462191
 11
 97.057566105217006
 21
 117.06021641575508
  0
LINE
  8
176
  6
CONTINUOUS
 62
     6
 10
 104.39367311072056
 20
 115.50087873462191
 11
 97.057566105217006
 21
 113.94154105348869
  0
TEXT
  8
176
  6
CONTINUOUS
 62
     96
 10
 52.193673110720553
 20
 116.82087873462187
 11
 66.593673110720559
 21
 116.82087873462187
 40
 9
 41
 0.8
  1
90
 50
 0
 72
  5
  0
LINE
  8
176
  6
CONTINUOUS
 62
     6
 10
-105.60632388927934
 20
 112.82087873462189
 11
-105.60632388927934
 21
 90.140878734621879
  0
LINE
  8
176
  6
CONTINUOUS
 62
     6
 10
 24.393697110720495
 20
 136.82087873462189
 11
 24.393697110720495
 21
 90.140878734621879
  0
LINE
  8
176
  6
CONTINUOUS
 62
     6
 10
 24.393697110720495
 20
 92.820878734621886
 11
-105.60632388927934
 21
 92.820878734621886
  0
LINE
  8
176
  6
CONTINUOUS
 62
     6
 10
 24.393697110720495
 20
 92.820878734621886
 11
 17.057590105216953
 21
 94.380216415755086
  0
LINE
  8
176
  6
CONTINUOUS
 62
     6
 10
 24.393697110720495
 20
 92.820878734621886
 11
 17.057590105216953
 21
 91.261541053488685
  0
LINE
  8
176
  6
CONTINUOUS
 62
     6
 10
-105.60632388927934
 20
 92.820878734621886
 11
-98.270216883775788
 21
 91.261541053488685
  0
LINE
  8
176
  6
CONTINUOUS
 62
     6
 10
-105.60632388927934
 20
 92.820878734621886
 11
-98.270216883775788
 21
 94.380216415755086
  0
TEXT
  8
176
  6
CONTINUOUS
 62
     96
 10
-51.406313389279418
 20
 94.140878734621879
 11
-29.806313389279417
 21
 94.140878734621879
 40
 9
 41
 0.8
  1
130
 50
 0
 72
  5
  0
LINE
  8
176
  6
CONTINUOUS
 62
     6
 10
 27.073697110720495
 20
 139.50087873462189
 11
 171.78168987427335
 21
 139.50087873462189
  0
LINE
  8
176
  6
CONTINUOUS
 62
     6
 10
 109.94432102583978
 20
 199.50087873462229
 11
 171.78168987427335
 21
 199.50087873462229
  0
LINE
  8
176
  6
CONTINUOUS
 62
     6
 10
 169.10168987427335
 20
 139.50087873462189
 11
 169.10168987427335
 21
 199.50087873462229
  0
LINE
  8
176
  6
CONTINUOUS
 62
     6
 10
 169.10168987427335
 20
 139.50087873462189
 11
 170.66102755540655
 21
 146.83698574012544
  0
LINE
  8
176
  6
CONTINUOUS
 62
     6
 10
 169.10168987427335
 20
 139.50087873462189
 11
 167.54235219314015
 21
 146.83698574012544
  0
LINE
  8
176
  6
CONTINUOUS
 62
     6
 10
 169.10168987427335
 20
 199.50087873462229
 11
 167.54235219314015
 21
 192.16477172911874
  0
LINE
  8
176
  6
CONTINUOUS
 62
     6
 10
 169.10168987427335
 20
 199.50087873462229
 11
 170.66102755540655
 21
 192.16477172911874
  0
TEXT
  8
176
  6
CONTINUOUS
 62
     96
 10
 167.78168987427335
 20
 162.30087873462213
 11
 167.78168987427335
 21
 176.70087873462211
 40
 9
 41
 0.8
  1
60
 50
 90.000001535234517
 72
  5
  0
LINE
  8
176
  6
CONTINUOUS
 62
     6
 10
 109.94432102583978
 20
 339.50087873462184
 11
 171.78168987427335
 21
 339.50087873462184
  0
LINE
  8
176
  6
CONTINUOUS
 62
     6
 10
 169.10168987427335
 20
 199.50087873462229
 11
 169.10168987427335
 21
 339.50087873462184
  0
LINE
  8
176
  6
CONTINUOUS
 62
     6
 10
 169.10168987427335
 20
 199.50087873462229
 11
 170.66102755540655
 21
 206.83698574012584
  0
LINE
  8
176
  6
CONTINUOUS
 62
     6
 10
 169.10168987427335
 20
 199.50087873462229
 11
 167.54235219314015
 21
 206.83698574012584
  0
LINE
  8
176
  6
CONTINUOUS
 62
     6
 10
 169.10168987427335
 20
 339.50087873462184
 11
 167.54235219314015
 21
 332.16477172911829
  0
LINE
  8
176
  6
CONTINUOUS
 62
     6
 10
 169.10168987427335
 20
 339.50087873462184
 11
 170.66102755540655
 21
 332.16477172911829
  0
TEXT
  8
176
  6
CONTINUOUS
 62
     96
 10
 167.78168987427335
 20
 258.70087873462205
 11
 167.78168987427335
 21
 280.30087873462207
 40
 9
 41
 0.8
  1
140
 50
 90.000001535234517
 72
  5
  0
LINE
  8
176
  6
CONTINUOUS
 62
     6
 10
 171.78168987427335
 20
 139.50087873462189
 11
 195.78168987427335
 21
 139.50087873462189
  0
LINE
  8
176
  6
CONTINUOUS
 62
     6
 10
 186.55740976071382
 20
 269.50087873462206
 11
 195.78168987427335
 21
 269.50087873462206
  0
LINE
  8
176
  6
CONTINUOUS
 62
     6
 10
 193.10168987427335
 20
 139.50087873462189
 11
 193.10168987427335
 21
 269.50087873462206
  0
LINE
  8
176
  6
CONTINUOUS
 62
     6
 10
 193.10168987427335
 20
 139.50087873462189
 11
 194.66102755540655
 21
 146.83698574012544
  0
LINE
  8
176
  6
CONTINUOUS
 62
     6
 10
 193.10168987427335
 20
 139.50087873462189
 11
 191.54235219314015
 21
 146.83698574012544
  0
LINE
  8
176
  6
CONTINUOUS
 62
     6
 10
 193.10168987427335
 20
 269.50087873462206
 11
 191.54235219314015
 21
 262.16477172911851
  0
LINE
  8
176
  6
CONTINUOUS
 62
     6
 10
 193.10168987427335
 20
 269.50087873462206
 11
 194.66102755540655
 21
 262.16477172911851
  0
TEXT
  8
176
  6
CONTINUOUS
 62
     96
 10
 191.78168987427335
 20
 193.70087873462199
 11
 191.78168987427335
 21
 215.30087873462202
 40
 9
 41
 0.8
  1
130
 50
 90.000001535234517
 72
  5
  0
LINE
  8
5
  6
CENTER
 62
     7
 10
-119.45531188927954
 20
 269.50087873462206
 11
 156.3378425616562
 21
 269.50087873462206
  0
LINE
  8
5
  6
CENTER
 62
     7
 10
 167.78168987427335
 20
 269.50087873462206
 11
 183.87740976071382
 21
 269.50087873462206
  0
LINE
  8
5
  6
CONTINUOUS
 62
     4
 10
 123.54465611072057
 20
 251.44415093615953
 11
 128.24465611072054
 21
 251.44415093615953
  0
LINE
  8
5
  6
CONTINUOUS
 62
     4
 10
 128.24465611072054
 20
 251.44415093615953
 11
 128.54465611072055
 21
 251.96376617843021
  0
LINE
  8
5
  6
CONTINUOUS
 62
     4
 10
 128.24465611072054
 20
 251.44415093615953
 11
 128.24465611072054
 21
 259.94415093615953
  0
LINE
  8
5
  6
CONTINUOUS
 62
     4
 10
 123.54465611072057
 20
 259.94415093615953
 11
 128.24465611072054
 21
 259.94415093615953
  0
LINE
  8
5
  6
CONTINUOUS
 62
     4
 10
 128.24465611072054
 20
 259.94415093615953
 11
 128.54465611072055
 21
 259.42453569388886
  0
LINE
  8
5
  6
CONTINUOUS
 62
     4
 10
 128.54465611072055
 20
 251.96376617843021
 11
 128.54465611072055
 21
 259.42453569388886
  0
LINE
  8
5
  6
CONTINUOUS
 62
     4
 10
 123.54465611072057
 20
 260.69415093615953
 11
 122.54465611072057
 21
 260.69415093615953
  0
LINE
  8
5
  6
CONTINUOUS
 62
     4
 10
 122.54465611072057
 20
 260.69415093615953
 11
 122.54465611072057
 21
 250.69415093615953
  0
LINE
  8
5
  6
CONTINUOUS
 62
     4
 10
 122.54465611072057
 20
 250.69415093615953
 11
 123.54465611072057
 21
 250.69415093615953
  0
LINE
  8
5
  6
CONTINUOUS
 62
     4
 10
 123.54465611072057
 20
 250.69415093615953
 11
 123.54465611072057
 21
 260.69415093615953
  0
LINE
  8
5
  6
CENTER
 62
     7
 10
 122.54465611072057
 20
 283.30760653308459
 11
 131.91439879349537
 21
 283.30760653308459
  0
LINE
  8
5
  6
CONTINUOUS
 62
     4
 10
 123.54465611072057
 20
 287.55760653308459
 11
 128.24465611072054
 21
 287.55760653308459
  0
LINE
  8
5
  6
CONTINUOUS
 62
     4
 10
 128.24465611072054
 20
 287.55760653308459
 11
 128.54465611072055
 21
 287.03799129081392
  0
LINE
  8
5
  6
CONTINUOUS
 62
     4
 10
 128.24465611072054
 20
 287.55760653308459
 11
 128.24465611072054
 21
 279.05760653308459
  0
LINE
  8
5
  6
CONTINUOUS
 62
     4
 10
 123.54465611072057
 20
 279.05760653308459
 11
 128.24465611072054
 21
 279.05760653308459
  0
LINE
  8
5
  6
CONTINUOUS
 62
     4
 10
 128.24465611072054
 20
 279.05760653308459
 11
 128.54465611072055
 21
 279.57722177535527
  0
LINE
  8
5
  6
CONTINUOUS
 62
     4
 10
 128.54465611072055
 20
 287.03799129081392
 11
 128.54465611072055
 21
 279.57722177535527
  0
LINE
  8
5
  6
CONTINUOUS
 62
     4
 10
 123.54465611072057
 20
 278.30760653308459
 11
 122.54465611072057
 21
 278.30760653308459
  0
LINE
  8
5
  6
CONTINUOUS
 62
     4
 10
 122.54465611072057
 20
 278.30760653308459
 11
 122.54465611072057
 21
 288.30760653308459
  0
LINE
  8
5
  6
CONTINUOUS
 62
     4
 10
 122.54465611072057
 20
 288.30760653308459
 11
 123.54465611072057
 21
 288.30760653308459
  0
LINE
  8
5
  6
CONTINUOUS
 62
     4
 10
 123.54465611072057
 20
 288.30760653308459
 11
 123.54465611072057
 21
 278.30760653308459
  0
LINE
  8
181
  6
CONTINUOUS
 62
     6
 10
 128.54465611072055
 20
 289.71799129081398
 11
 128.54465611072055
 21
 365.47983777206986
  0
LINE
  8
181
  6
CONTINUOUS
 62
     6
 10
 104.39367311072056
 20
 342.18087873462207
 11
 104.39367311072056
 21
 365.47983777206986
  0
LINE
  8
181
  6
CONTINUOUS
 62
     6
 10
 128.54465611072055
 20
 362.79983777206985
 11
 104.39367311072056
 21
 362.79983777206985
  0
LINE
  8
181
  6
CONTINUOUS
 62
     6
 10
 128.54465611072055
 20
 362.79983777206985
 11
 121.208549105217
 21
 364.35917545320302
  0
LINE
  8
181
  6
CONTINUOUS
 62
     6
 10
 128.54465611072055
 20
 362.79983777206985
 11
 121.208549105217
 21
 361.24050009093668
  0
LINE
  8
181
  6
CONTINUOUS
 62
     6
 10
 104.39367311072056
 20
 362.79983777206985
 11
 111.72978011622411
 21
 361.24050009093668
  0
LINE
  8
181
  6
CONTINUOUS
 62
     6
 10
 104.39367311072056
 20
 362.79983777206985
 11
 111.72978011622411
 21
 364.35917545320302
  0
TEXT
  8
181
  6
CONTINUOUS
 62
     96
 10
 109.26916461072055
 20
 364.11983777206984
 11
 123.66916461072056
 21
 364.11983777206984
 40
 9
 41
 0.8
  1
25
 50
 0
 72
  5
  0
LINE
  8
181
  6
CONTINUOUS
 62
     6
 10
-154.60634988927995
 20
 298.18087123462226
 11
-154.60634988927995
 21
 397.22145744413751
  0
LINE
  8
181
  6
CONTINUOUS
 62
     6
 10
 128.54465611072055
 20
 365.47983777206986
 11
 128.54465611072055
 21
 397.22145744413751
  0
LINE
  8
181
  6
CONTINUOUS
 62
     6
 10
 128.54465611072055
 20
 394.54145744413751
 11
-154.60634988927995
 21
 394.54145744413751
  0
LINE
  8
181
  6
CONTINUOUS
 62
     6
 10
 128.54465611072055
 20
 394.54145744413751
 11
 121.208549105217
 21
 396.10079512527068
  0
LINE
  8
181
  6
CONTINUOUS
 62
     6
 10
 128.54465611072055
 20
 394.54145744413751
 11
 121.208549105217
 21
 392.98211976300433
  0
LINE
  8
181
  6
CONTINUOUS
 62
     6
 10
-154.60634988927995
 20
 394.54145744413751
 11
-147.2702428837764
 21
 392.98211976300433
  0
LINE
  8
181
  6
CONTINUOUS
 62
     6
 10
-154.60634988927995
 20
 394.54145744413751
 11
-147.2702428837764
 21
 396.10079512527068
  0
TEXT
  8
181
  6
CONTINUOUS
 62
     96
 10
-38.230846889279704
 20
 395.8614574441375
 11
 12.169153110720298
 21
 395.8614574441375
 40
 9
 41
 0.8
  1
MAX 297
 50
 0
 72
  5
  0
LINE
  8
181
  6
CONTINUOUS
 62
     6
 10
-27.866427337434232
 20
-213.8969862395698
 11
-27.866427337434232
 21
-241.3220981478978
  0
LINE
  8
181
  6
CONTINUOUS
 62
     6
 10
-91.866432337434105
 20
-207.20621950797801
 11
-91.866432337434105
 21
-241.3220981478978
  0
LINE
  8
181
  6
CONTINUOUS
 62
     6
 10
-91.866432337434105
 20
-238.6420981478978
 11
-27.866427337434232
 21
-238.6420981478978
  0
LINE
  8
181
  6
CONTINUOUS
 62
     6
 10
-91.866432337434105
 20
-238.6420981478978
 11
-84.530325331930555
 21
-240.20143582903103
  0
LINE
  8
181
  6
CONTINUOUS
 62
     6
 10
-91.866432337434105
 20
-238.6420981478978
 11
-84.530325331930555
 21
-237.0827604667646
  0
LINE
  8
181
  6
CONTINUOUS
 62
     6
 10
-27.866427337434232
 20
-238.6420981478978
 11
-35.202534342937774
 21
-237.0827604667646
  0
LINE
  8
181
  6
CONTINUOUS
 62
     6
 10
-27.866427337434232
 20
-238.6420981478978
 11
-35.202534342937774
 21
-240.20143582903103
  0
TEXT
  8
181
  6
CONTINUOUS
 62
     96
 10
-67.066429837434171
 20
-237.3220981478978
 11
-52.666429837434166
 21
-237.3220981478978
 40
 9
 41
 0.8
  1
64
 50
 0
 72
  5
  0
LINE
  8
181
  6
CONTINUOUS
 62
     6
 10
-87.866419337434252
 20
-200.3179383356765
 11
-87.866419337434252
 21
-265.3220981478978
  0
LINE
  8
181
  6
CONTINUOUS
 62
     6
 10
 32.133564662565789
 20
-200.3179383356765
 11
 32.133564662565789
 21
-265.3220981478978
  0
LINE
  8
181
  6
CONTINUOUS
 62
     6
 10
-87.866419337434252
 20
-262.6420981478978
 11
 32.133564662565789
 21
-262.6420981478978
  0
LINE
  8
181
  6
CONTINUOUS
 62
     6
 10
-87.866419337434252
 20
-262.6420981478978
 11
-80.530312331930702
 21
-264.20143582903097
  0
LINE
  8
181
  6
CONTINUOUS
 62
     6
 10
-87.866419337434252
 20
-262.6420981478978
 11
-80.530312331930702
 21
-261.08276046676463
  0
LINE
  8
181
  6
CONTINUOUS
 62
     6
 10
 32.133564662565789
 20
-262.6420981478978
 11
 24.797457657062246
 21
-261.08276046676463
  0
LINE
  8
181
  6
CONTINUOUS
 62
     6
 10
 32.133564662565789
 20
-262.6420981478978
 11
 24.797457657062246
 21
-264.20143582903097
  0
TEXT
  8
181
  6
CONTINUOUS
 62
     96
 10
-38.666427337434229
 20
-261.3220981478978
 11
-17.066427337434231
 21
-261.3220981478978
 40
 9
 41
 0.8
  1
120
 50
 0
 72
  5
  0
LINE
  8
181
  6
CONTINUOUS
 62
     6
 10
-127.86644833743406
 20
-44.957938335676552
 11
-127.86644833743406
 21
 16.747486818980676
  0
LINE
  8
181
  6
CONTINUOUS
 62
     6
 10
-91.866432337434105
 20
 19.390324443937857
 11
-91.866432337434105
 21
 11.387486818980662
  0
LINE
  8
181
  6
CONTINUOUS
 62
     6
 10
-91.866432337434105
 20
 14.067486818980669
 11
-127.86644833743406
 21
 14.067486818980669
  0
LINE
  8
181
  6
CONTINUOUS
 62
     6
 10
-91.866432337434105
 20
 14.067486818980669
 11
-99.202539342937655
 21
 15.626824500113866
  0
LINE
  8
181
  6
CONTINUOUS
 62
     6
 10
-91.866432337434105
 20
 14.067486818980669
 11
-99.202539342937655
 21
 12.508149137847473
  0
LINE
  8
181
  6
CONTINUOUS
 62
     6
 10
-127.86644833743406
 20
 14.067486818980669
 11
-120.53034133193052
 21
 12.508149137847473
  0
LINE
  8
181
  6
CONTINUOUS
 62
     6
 10
-127.86644833743406
 20
 14.067486818980669
 11
-120.53034133193052
 21
 15.626824500113866
  0
TEXT
  8
181
  6
CONTINUOUS
 62
     96
 10
-117.06644033743409
 20
 15.387486818980662
 11
-102.66644033743408
 21
 15.387486818980662
 40
 9
 41
 0.8
  1
36
 50
 0
 72
  5
  0
LINE
  8
181
  6
CONTINUOUS
 62
     6
 10
 128.13356766256544
 20
-22.457961335676373
 11
 128.13356766256544
 21
 40.108633229687726
  0
LINE
  8
181
  6
CONTINUOUS
 62
     6
 10
-127.86644833743406
 20
 16.747486818980676
 11
-127.86644833743406
 21
 40.108633229687726
  0
LINE
  8
181
  6
CONTINUOUS
 62
     6
 10
-127.86644833743406
 20
 37.428633229687719
 11
 128.13356766256544
 21
 37.428633229687719
  0
LINE
  8
181
  6
CONTINUOUS
 62
     6
 10
-127.86644833743406
 20
 37.428633229687719
 11
-120.53034133193052
 21
 35.869295548554526
  0
LINE
  8
181
  6
CONTINUOUS
 62
     6
 10
-127.86644833743406
 20
 37.428633229687719
 11
-120.53034133193052
 21
 38.987970910820913
  0
LINE
  8
181
  6
CONTINUOUS
 62
     6
 10
 128.13356766256544
 20
 37.428633229687719
 11
 120.79746065706189
 21
 38.987970910820913
  0
LINE
  8
181
  6
CONTINUOUS
 62
     6
 10
 128.13356766256544
 20
 37.428633229687719
 11
 120.79746065706189
 21
 35.869295548554526
  0
TEXT
  8
181
  6
CONTINUOUS
 62
     96
 10
-14.266440337434313
 20
 38.748633229687712
 11
 14.533559662565686
 21
 38.748633229687712
 40
 9
 41
 0.8
  1
約256
 50
 0
 72
  5
  0
INSERT
  8
0
  2
CADWIN-G0
 10
0.0
 20
0.0
  0
TEXT
  8
5
  6
CONTINUOUS
 62
     96
 10
-17.266435337434213
 20
-167.13793033567651
 11
 11.533564662565791
 21
-167.13793033567651
 40
 12
 41
 0.8
  1
Ｎ・Ｐ
 50
 0
 72
  5
  0
INSERT
  8
0
  2
CADWIN-G1
 10
0.0
 20
0.0
  0
TEXT
  8
0
  6
CONTINUOUS
 62
     3
 10
-96.525000062584851
 20
-404.25
 11
-49.725000062584854
 21
-404.25
 40
 10.5
 41
 0.8
  1
山田
 50
 0
 72
  5
  0
INSERT
  8
0
  2
CADWIN-G2
 10
0.0
 20
0.0
  0
INSERT
  8
0
  2
CADWIN-G3
 10
0.0
 20
0.0
  0
ENDSEC
  0
EOF
