  0
SECTION
  2
HEADER
  9
$INSBASE
 10
0.0
20
0.0
  9
$REGENMODE
 70
     1
  9
$DRAGMODE
 70
     1
  9
$DIMTAD
 70
     1
  9
$EXTMIN
 10
-105.000000
 20
-148.500000
 30
 0.0
  9
$EXTMAX
 10
105.000000
 20
148.500000
 30
 0.0
  9
$LUPREC
 70
    3
  9
$AUPREC
 70
    3
  9
$LTSCALE
 40
13.125000
  0
ENDSEC
  0
SECTION
  2
TABLES
  0
TABLE
  2
LTYPE
 70
     6
  0
LTYPE
  2
CONTINUOUS
 70
    64
  3
8;
 72
    65
 73
     0
 40
0.0
  0
LTYPE
  2
DASHED2
 70
    64
  3
_ _ _ _ _ _ _ _ _ _ _ _ _ _ _ _ _ _ _ _ _ _ 
 72
    65
 73
     2
 40
0.5
 49
0.25
 49
-0.25
  0
LTYPE
  2
DASHED
 70
    64
  3
__ __ __ __ __ __ __ __ __ __ __ __ __ __ __
 72
    65
 73
     2
 40
0.75
 49
0.5
 49
-0.25
  0
LTYPE
  2
DASHEDX2
 70
    64
  3
____  ____  ____  ____  ____  ____  ____  __
 72
    65
 73
     2
 40
1.5
 49
1.0
 49
-0.5
  0
LTYPE
  2
HIDDENX2
 70
    64
  3
____ ____ ____ ____ ____ ____ ____ ____ ____
 72
    65
 73
     2
 40
0.625
 49
0.5
 49
-0.125
  0
LTYPE
  2
CENTER
 70
    64
  3
____ _ ____ _ ____ _ ____ _ ____ _ ____ _ __
 72
    65
 73
     4
 40
2.0
 49
1.25
 49
-0.25
 49
0.25
 49
-0.25
  0
LTYPE
  2
CENTERX2
 70
    64
  3
________  __  ________  __  ________  __  __
 72
    65
 73
     4
 40
4.0
 49
2.5
 49
-0.5
 49
0.5
 49
-0.5
  0
LTYPE
  2
PHANTOM2
 70
    64
  3
___ _ _ ___ _ _ ___ _ _ ___ _ _ ___ _ _ ___ 
 72
    65
 73
     6
 40
1.25
 49
0.625
 49
-0.125
 49
0.125
 49
-0.125
 49
0.125
 49
-0.125
  0
LTYPE
  2
PHANTOM
 70
    64
  3
_____ _ _ _____ _ _ _____ _ _ _____ _ _ ____
 72
    65
 73
     6
 40
2.5
 49
1.25
 49
-0.25
 49
0.25
 49
-0.25
 49
0.25
 49
-0.25
  0
ENDTAB
  0
TABLE
  2
LAYER
 70
   255
  0
LAYER
  2
0
 70
    64
 62
     7
  6
CONTINUOUS
  0
LAYER
  2
1
 70
    64
 62
     7
  6
CONTINUOUS
  0
LAYER
  2
2
 70
    64
 62
     7
  6
CONTINUOUS
  0
LAYER
  2
3
 70
    64
 62
     7
  6
CONTINUOUS
  0
LAYER
  2
4
 70
    64
 62
     7
  6
CONTINUOUS
  0
LAYER
  2
5
 70
    64
 62
     7
  6
CONTINUOUS
  0
LAYER
  2
6
 70
    64
 62
     7
  6
CONTINUOUS
  0
LAYER
  2
7
 70
    64
 62
     7
  6
CONTINUOUS
  0
LAYER
  2
8
 70
    64
 62
     7
  6
CONTINUOUS
  0
LAYER
  2
9
 70
    64
 62
     7
  6
CONTINUOUS
  0
LAYER
  2
10
 70
    64
 62
     7
  6
CONTINUOUS
  0
LAYER
  2
11
 70
    64
 62
     7
  6
CONTINUOUS
  0
LAYER
  2
12
 70
    64
 62
     7
  6
CONTINUOUS
  0
LAYER
  2
13
 70
    64
 62
     7
  6
CONTINUOUS
  0
LAYER
  2
14
 70
    64
 62
     7
  6
CONTINUOUS
  0
LAYER
  2
15
 70
    64
 62
     7
  6
CONTINUOUS
  0
LAYER
  2
16
 70
    64
 62
     7
  6
CONTINUOUS
  0
LAYER
  2
17
 70
    64
 62
     7
  6
CONTINUOUS
  0
LAYER
  2
18
 70
    64
 62
     7
  6
CONTINUOUS
  0
LAYER
  2
19
 70
    64
 62
     7
  6
CONTINUOUS
  0
LAYER
  2
20
 70
    64
 62
     7
  6
CONTINUOUS
  0
LAYER
  2
21
 70
    64
 62
     7
  6
CONTINUOUS
  0
LAYER
  2
22
 70
    64
 62
     7
  6
CONTINUOUS
  0
LAYER
  2
23
 70
    64
 62
     7
  6
CONTINUOUS
  0
LAYER
  2
24
 70
    64
 62
     7
  6
CONTINUOUS
  0
LAYER
  2
25
 70
    64
 62
     7
  6
CONTINUOUS
  0
LAYER
  2
26
 70
    64
 62
     7
  6
CONTINUOUS
  0
LAYER
  2
27
 70
    64
 62
     7
  6
CONTINUOUS
  0
LAYER
  2
28
 70
    64
 62
     7
  6
CONTINUOUS
  0
LAYER
  2
29
 70
    64
 62
     7
  6
CONTINUOUS
  0
LAYER
  2
30
 70
    64
 62
     7
  6
CONTINUOUS
  0
LAYER
  2
31
 70
    64
 62
     7
  6
CONTINUOUS
  0
LAYER
  2
32
 70
    64
 62
     7
  6
CONTINUOUS
  0
LAYER
  2
33
 70
    64
 62
     7
  6
CONTINUOUS
  0
LAYER
  2
34
 70
    64
 62
     7
  6
CONTINUOUS
  0
LAYER
  2
35
 70
    64
 62
     7
  6
CONTINUOUS
  0
LAYER
  2
36
 70
    64
 62
     7
  6
CONTINUOUS
  0
LAYER
  2
37
 70
    64
 62
     7
  6
CONTINUOUS
  0
LAYER
  2
38
 70
    64
 62
     7
  6
CONTINUOUS
  0
LAYER
  2
39
 70
    64
 62
     7
  6
CONTINUOUS
  0
LAYER
  2
40
 70
    64
 62
     7
  6
CONTINUOUS
  0
LAYER
  2
41
 70
    64
 62
     7
  6
CONTINUOUS
  0
LAYER
  2
42
 70
    64
 62
     7
  6
CONTINUOUS
  0
LAYER
  2
43
 70
    64
 62
     7
  6
CONTINUOUS
  0
LAYER
  2
44
 70
    64
 62
     7
  6
CONTINUOUS
  0
LAYER
  2
45
 70
    64
 62
     7
  6
CONTINUOUS
  0
LAYER
  2
46
 70
    64
 62
     7
  6
CONTINUOUS
  0
LAYER
  2
47
 70
    64
 62
     7
  6
CONTINUOUS
  0
LAYER
  2
48
 70
    64
 62
     7
  6
CONTINUOUS
  0
LAYER
  2
49
 70
    64
 62
     7
  6
CONTINUOUS
  0
LAYER
  2
50
 70
    64
 62
     7
  6
CONTINUOUS
  0
LAYER
  2
51
 70
    64
 62
     7
  6
CONTINUOUS
  0
LAYER
  2
52
 70
    64
 62
     7
  6
CONTINUOUS
  0
LAYER
  2
53
 70
    64
 62
     7
  6
CONTINUOUS
  0
LAYER
  2
54
 70
    64
 62
     7
  6
CONTINUOUS
  0
LAYER
  2
55
 70
    64
 62
     7
  6
CONTINUOUS
  0
LAYER
  2
56
 70
    64
 62
     7
  6
CONTINUOUS
  0
LAYER
  2
57
 70
    64
 62
     7
  6
CONTINUOUS
  0
LAYER
  2
58
 70
    64
 62
     7
  6
CONTINUOUS
  0
LAYER
  2
59
 70
    64
 62
     7
  6
CONTINUOUS
  0
LAYER
  2
60
 70
    64
 62
     7
  6
CONTINUOUS
  0
LAYER
  2
61
 70
    64
 62
     7
  6
CONTINUOUS
  0
LAYER
  2
62
 70
    64
 62
     7
  6
CONTINUOUS
  0
LAYER
  2
63
 70
    64
 62
     7
  6
CONTINUOUS
  0
LAYER
  2
64
 70
    64
 62
     7
  6
CONTINUOUS
  0
LAYER
  2
65
 70
    64
 62
     7
  6
CONTINUOUS
  0
LAYER
  2
66
 70
    64
 62
     7
  6
CONTINUOUS
  0
LAYER
  2
67
 70
    64
 62
     7
  6
CONTINUOUS
  0
LAYER
  2
68
 70
    64
 62
     7
  6
CONTINUOUS
  0
LAYER
  2
69
 70
    64
 62
     7
  6
CONTINUOUS
  0
LAYER
  2
70
 70
    64
 62
     7
  6
CONTINUOUS
  0
LAYER
  2
71
 70
    64
 62
     7
  6
CONTINUOUS
  0
LAYER
  2
72
 70
    64
 62
     7
  6
CONTINUOUS
  0
LAYER
  2
73
 70
    64
 62
     7
  6
CONTINUOUS
  0
LAYER
  2
74
 70
    64
 62
     7
  6
CONTINUOUS
  0
LAYER
  2
75
 70
    64
 62
     7
  6
CONTINUOUS
  0
LAYER
  2
76
 70
    64
 62
     7
  6
CONTINUOUS
  0
LAYER
  2
77
 70
    64
 62
     7
  6
CONTINUOUS
  0
LAYER
  2
78
 70
    64
 62
     7
  6
CONTINUOUS
  0
LAYER
  2
79
 70
    64
 62
     7
  6
CONTINUOUS
  0
LAYER
  2
80
 70
    64
 62
     7
  6
CONTINUOUS
  0
LAYER
  2
81
 70
    64
 62
     7
  6
CONTINUOUS
  0
LAYER
  2
82
 70
    64
 62
     7
  6
CONTINUOUS
  0
LAYER
  2
83
 70
    64
 62
     7
  6
CONTINUOUS
  0
LAYER
  2
84
 70
    64
 62
     7
  6
CONTINUOUS
  0
LAYER
  2
85
 70
    64
 62
     7
  6
CONTINUOUS
  0
LAYER
  2
86
 70
    64
 62
     7
  6
CONTINUOUS
  0
LAYER
  2
87
 70
    64
 62
     7
  6
CONTINUOUS
  0
LAYER
  2
88
 70
    64
 62
     7
  6
CONTINUOUS
  0
LAYER
  2
89
 70
    64
 62
     7
  6
CONTINUOUS
  0
LAYER
  2
90
 70
    64
 62
     7
  6
CONTINUOUS
  0
LAYER
  2
91
 70
    64
 62
     7
  6
CONTINUOUS
  0
LAYER
  2
92
 70
    64
 62
     7
  6
CONTINUOUS
  0
LAYER
  2
93
 70
    64
 62
     7
  6
CONTINUOUS
  0
LAYER
  2
94
 70
    64
 62
     7
  6
CONTINUOUS
  0
LAYER
  2
95
 70
    64
 62
     7
  6
CONTINUOUS
  0
LAYER
  2
96
 70
    64
 62
     7
  6
CONTINUOUS
  0
LAYER
  2
97
 70
    64
 62
     7
  6
CONTINUOUS
  0
LAYER
  2
98
 70
    64
 62
     7
  6
CONTINUOUS
  0
LAYER
  2
99
 70
    64
 62
     7
  6
CONTINUOUS
  0
LAYER
  2
100
 70
    64
 62
     7
  6
CONTINUOUS
  0
LAYER
  2
101
 70
    64
 62
     7
  6
CONTINUOUS
  0
LAYER
  2
102
 70
    64
 62
     7
  6
CONTINUOUS
  0
LAYER
  2
103
 70
    64
 62
     7
  6
CONTINUOUS
  0
LAYER
  2
104
 70
    64
 62
     7
  6
CONTINUOUS
  0
LAYER
  2
105
 70
    64
 62
     7
  6
CONTINUOUS
  0
LAYER
  2
106
 70
    64
 62
     7
  6
CONTINUOUS
  0
LAYER
  2
107
 70
    64
 62
     7
  6
CONTINUOUS
  0
LAYER
  2
108
 70
    64
 62
     7
  6
CONTINUOUS
  0
LAYER
  2
109
 70
    64
 62
     7
  6
CONTINUOUS
  0
LAYER
  2
110
 70
    64
 62
     7
  6
CONTINUOUS
  0
LAYER
  2
111
 70
    64
 62
     7
  6
CONTINUOUS
  0
LAYER
  2
112
 70
    64
 62
     7
  6
CONTINUOUS
  0
LAYER
  2
113
 70
    64
 62
     7
  6
CONTINUOUS
  0
LAYER
  2
114
 70
    64
 62
     7
  6
CONTINUOUS
  0
LAYER
  2
115
 70
    64
 62
     7
  6
CONTINUOUS
  0
LAYER
  2
116
 70
    64
 62
     7
  6
CONTINUOUS
  0
LAYER
  2
117
 70
    64
 62
     7
  6
CONTINUOUS
  0
LAYER
  2
118
 70
    64
 62
     7
  6
CONTINUOUS
  0
LAYER
  2
119
 70
    64
 62
     7
  6
CONTINUOUS
  0
LAYER
  2
120
 70
    64
 62
     7
  6
CONTINUOUS
  0
LAYER
  2
121
 70
    64
 62
     7
  6
CONTINUOUS
  0
LAYER
  2
122
 70
    64
 62
     7
  6
CONTINUOUS
  0
LAYER
  2
123
 70
    64
 62
     7
  6
CONTINUOUS
  0
LAYER
  2
124
 70
    64
 62
     7
  6
CONTINUOUS
  0
LAYER
  2
125
 70
    64
 62
     7
  6
CONTINUOUS
  0
LAYER
  2
126
 70
    64
 62
     7
  6
CONTINUOUS
  0
LAYER
  2
127
 70
    64
 62
     7
  6
CONTINUOUS
  0
LAYER
  2
128
 70
    64
 62
     7
  6
CONTINUOUS
  0
LAYER
  2
129
 70
    64
 62
     7
  6
CONTINUOUS
  0
LAYER
  2
130
 70
    64
 62
     7
  6
CONTINUOUS
  0
LAYER
  2
131
 70
    64
 62
     7
  6
CONTINUOUS
  0
LAYER
  2
132
 70
    64
 62
     7
  6
CONTINUOUS
  0
LAYER
  2
133
 70
    64
 62
     7
  6
CONTINUOUS
  0
LAYER
  2
134
 70
    64
 62
     7
  6
CONTINUOUS
  0
LAYER
  2
135
 70
    64
 62
     7
  6
CONTINUOUS
  0
LAYER
  2
136
 70
    64
 62
     7
  6
CONTINUOUS
  0
LAYER
  2
137
 70
    64
 62
     7
  6
CONTINUOUS
  0
LAYER
  2
138
 70
    64
 62
     7
  6
CONTINUOUS
  0
LAYER
  2
139
 70
    64
 62
     7
  6
CONTINUOUS
  0
LAYER
  2
140
 70
    64
 62
     7
  6
CONTINUOUS
  0
LAYER
  2
141
 70
    64
 62
     7
  6
CONTINUOUS
  0
LAYER
  2
142
 70
    64
 62
     7
  6
CONTINUOUS
  0
LAYER
  2
143
 70
    64
 62
     7
  6
CONTINUOUS
  0
LAYER
  2
144
 70
    64
 62
     7
  6
CONTINUOUS
  0
LAYER
  2
145
 70
    64
 62
     7
  6
CONTINUOUS
  0
LAYER
  2
146
 70
    64
 62
     7
  6
CONTINUOUS
  0
LAYER
  2
147
 70
    64
 62
     7
  6
CONTINUOUS
  0
LAYER
  2
148
 70
    64
 62
     7
  6
CONTINUOUS
  0
LAYER
  2
149
 70
    64
 62
     7
  6
CONTINUOUS
  0
LAYER
  2
150
 70
    64
 62
     7
  6
CONTINUOUS
  0
LAYER
  2
151
 70
    64
 62
     7
  6
CONTINUOUS
  0
LAYER
  2
152
 70
    64
 62
     7
  6
CONTINUOUS
  0
LAYER
  2
153
 70
    64
 62
     7
  6
CONTINUOUS
  0
LAYER
  2
154
 70
    64
 62
     7
  6
CONTINUOUS
  0
LAYER
  2
155
 70
    64
 62
     7
  6
CONTINUOUS
  0
LAYER
  2
156
 70
    64
 62
     7
  6
CONTINUOUS
  0
LAYER
  2
157
 70
    64
 62
     7
  6
CONTINUOUS
  0
LAYER
  2
158
 70
    64
 62
     7
  6
CONTINUOUS
  0
LAYER
  2
159
 70
    64
 62
     7
  6
CONTINUOUS
  0
LAYER
  2
160
 70
    64
 62
     7
  6
CONTINUOUS
  0
LAYER
  2
161
 70
    64
 62
     7
  6
CONTINUOUS
  0
LAYER
  2
162
 70
    64
 62
     7
  6
CONTINUOUS
  0
LAYER
  2
163
 70
    64
 62
     7
  6
CONTINUOUS
  0
LAYER
  2
164
 70
    64
 62
     7
  6
CONTINUOUS
  0
LAYER
  2
165
 70
    64
 62
     7
  6
CONTINUOUS
  0
LAYER
  2
166
 70
    64
 62
     7
  6
CONTINUOUS
  0
LAYER
  2
167
 70
    64
 62
     7
  6
CONTINUOUS
  0
LAYER
  2
168
 70
    64
 62
     7
  6
CONTINUOUS
  0
LAYER
  2
169
 70
    64
 62
     7
  6
CONTINUOUS
  0
LAYER
  2
170
 70
    64
 62
     7
  6
CONTINUOUS
  0
LAYER
  2
171
 70
    64
 62
     7
  6
CONTINUOUS
  0
LAYER
  2
172
 70
    64
 62
     7
  6
CONTINUOUS
  0
LAYER
  2
173
 70
    64
 62
     7
  6
CONTINUOUS
  0
LAYER
  2
174
 70
    64
 62
     7
  6
CONTINUOUS
  0
LAYER
  2
175
 70
    64
 62
     7
  6
CONTINUOUS
  0
LAYER
  2
176
 70
    64
 62
     7
  6
CONTINUOUS
  0
LAYER
  2
177
 70
    64
 62
     7
  6
CONTINUOUS
  0
LAYER
  2
178
 70
    64
 62
     7
  6
CONTINUOUS
  0
LAYER
  2
179
 70
    64
 62
     7
  6
CONTINUOUS
  0
LAYER
  2
180
 70
    64
 62
     7
  6
CONTINUOUS
  0
LAYER
  2
181
 70
    64
 62
     7
  6
CONTINUOUS
  0
LAYER
  2
182
 70
    64
 62
     7
  6
CONTINUOUS
  0
LAYER
  2
183
 70
    64
 62
     7
  6
CONTINUOUS
  0
LAYER
  2
184
 70
    64
 62
     7
  6
CONTINUOUS
  0
LAYER
  2
185
 70
    64
 62
     7
  6
CONTINUOUS
  0
LAYER
  2
186
 70
    64
 62
     7
  6
CONTINUOUS
  0
LAYER
  2
187
 70
    64
 62
     7
  6
CONTINUOUS
  0
LAYER
  2
188
 70
    64
 62
     7
  6
CONTINUOUS
  0
LAYER
  2
189
 70
    64
 62
     7
  6
CONTINUOUS
  0
LAYER
  2
190
 70
    64
 62
     7
  6
CONTINUOUS
  0
LAYER
  2
191
 70
    64
 62
     7
  6
CONTINUOUS
  0
LAYER
  2
192
 70
    64
 62
     7
  6
CONTINUOUS
  0
LAYER
  2
193
 70
    64
 62
     7
  6
CONTINUOUS
  0
LAYER
  2
194
 70
    64
 62
     7
  6
CONTINUOUS
  0
LAYER
  2
195
 70
    64
 62
     7
  6
CONTINUOUS
  0
LAYER
  2
196
 70
    64
 62
     7
  6
CONTINUOUS
  0
LAYER
  2
197
 70
    64
 62
     7
  6
CONTINUOUS
  0
LAYER
  2
198
 70
    64
 62
     7
  6
CONTINUOUS
  0
LAYER
  2
199
 70
    64
 62
     7
  6
CONTINUOUS
  0
LAYER
  2
200
 70
    64
 62
     7
  6
CONTINUOUS
  0
LAYER
  2
201
 70
    64
 62
     7
  6
CONTINUOUS
  0
LAYER
  2
202
 70
    64
 62
     7
  6
CONTINUOUS
  0
LAYER
  2
203
 70
    64
 62
     7
  6
CONTINUOUS
  0
LAYER
  2
204
 70
    64
 62
     7
  6
CONTINUOUS
  0
LAYER
  2
205
 70
    64
 62
     7
  6
CONTINUOUS
  0
LAYER
  2
206
 70
    64
 62
     7
  6
CONTINUOUS
  0
LAYER
  2
207
 70
    64
 62
     7
  6
CONTINUOUS
  0
LAYER
  2
208
 70
    64
 62
     7
  6
CONTINUOUS
  0
LAYER
  2
209
 70
    64
 62
     7
  6
CONTINUOUS
  0
LAYER
  2
210
 70
    64
 62
     7
  6
CONTINUOUS
  0
LAYER
  2
211
 70
    64
 62
     7
  6
CONTINUOUS
  0
LAYER
  2
212
 70
    64
 62
     7
  6
CONTINUOUS
  0
LAYER
  2
213
 70
    64
 62
     7
  6
CONTINUOUS
  0
LAYER
  2
214
 70
    64
 62
     7
  6
CONTINUOUS
  0
LAYER
  2
215
 70
    64
 62
     7
  6
CONTINUOUS
  0
LAYER
  2
216
 70
    64
 62
     7
  6
CONTINUOUS
  0
LAYER
  2
217
 70
    64
 62
     7
  6
CONTINUOUS
  0
LAYER
  2
218
 70
    64
 62
     7
  6
CONTINUOUS
  0
LAYER
  2
219
 70
    64
 62
     7
  6
CONTINUOUS
  0
LAYER
  2
220
 70
    64
 62
     7
  6
CONTINUOUS
  0
LAYER
  2
221
 70
    64
 62
     7
  6
CONTINUOUS
  0
LAYER
  2
222
 70
    64
 62
     7
  6
CONTINUOUS
  0
LAYER
  2
223
 70
    64
 62
     7
  6
CONTINUOUS
  0
LAYER
  2
224
 70
    64
 62
     7
  6
CONTINUOUS
  0
LAYER
  2
225
 70
    64
 62
     7
  6
CONTINUOUS
  0
LAYER
  2
226
 70
    64
 62
     7
  6
CONTINUOUS
  0
LAYER
  2
227
 70
    64
 62
     7
  6
CONTINUOUS
  0
LAYER
  2
228
 70
    64
 62
     7
  6
CONTINUOUS
  0
LAYER
  2
229
 70
    64
 62
     7
  6
CONTINUOUS
  0
LAYER
  2
230
 70
    64
 62
     7
  6
CONTINUOUS
  0
LAYER
  2
231
 70
    64
 62
     7
  6
CONTINUOUS
  0
LAYER
  2
232
 70
    64
 62
     7
  6
CONTINUOUS
  0
LAYER
  2
233
 70
    64
 62
     7
  6
CONTINUOUS
  0
LAYER
  2
234
 70
    64
 62
     7
  6
CONTINUOUS
  0
LAYER
  2
235
 70
    64
 62
     7
  6
CONTINUOUS
  0
LAYER
  2
236
 70
    64
 62
     7
  6
CONTINUOUS
  0
LAYER
  2
237
 70
    64
 62
     7
  6
CONTINUOUS
  0
LAYER
  2
238
 70
    64
 62
     7
  6
CONTINUOUS
  0
LAYER
  2
239
 70
    64
 62
     7
  6
CONTINUOUS
  0
LAYER
  2
240
 70
    64
 62
     7
  6
CONTINUOUS
  0
LAYER
  2
241
 70
    64
 62
     7
  6
CONTINUOUS
  0
LAYER
  2
242
 70
    64
 62
     7
  6
CONTINUOUS
  0
LAYER
  2
243
 70
    64
 62
     7
  6
CONTINUOUS
  0
LAYER
  2
244
 70
    64
 62
     7
  6
CONTINUOUS
  0
LAYER
  2
245
 70
    64
 62
     7
  6
CONTINUOUS
  0
LAYER
  2
246
 70
    64
 62
     7
  6
CONTINUOUS
  0
LAYER
  2
247
 70
    64
 62
     7
  6
CONTINUOUS
  0
LAYER
  2
248
 70
    64
 62
     7
  6
CONTINUOUS
  0
LAYER
  2
249
 70
    64
 62
     7
  6
CONTINUOUS
  0
LAYER
  2
250
 70
    64
 62
     7
  6
CONTINUOUS
  0
LAYER
  2
251
 70
    64
 62
     7
  6
CONTINUOUS
  0
LAYER
  2
252
 70
    64
 62
     7
  6
CONTINUOUS
  0
LAYER
  2
253
 70
    64
 62
     7
  6
CONTINUOUS
  0
LAYER
  2
254
 70
    64
 62
     7
  6
CONTINUOUS
  0
LAYER
  2
255
 70
    64
 62
     7
  6
CONTINUOUS
  0
ENDTAB
  0
TABLE
  2
STYLE
 70
     2
  0
STYLE
  2
STANDARD
 70
    64
 40
0.0
 41
1.0
 50
0.0
 71
     0
 42
3.000000
  3
TXT
  4
BIGFONT
  0
ENDTAB
  0
ENDSEC
  0
SECTION
  2
BLOCKS
  0
BLOCK
  8
0
  2
CADWIN-G0
 70
    0
 10
0.0
 20
0.0
  0
LINE
  8
204
  6
CONTINUOUS
 62
     7
 10
 25.784615384615449
 20
 110.09811616954475
 11
 57.677982629622186
 21
 119.85276485375242
  0
LINE
  8
204
  6
CONTINUOUS
 62
     7
 10
 25.784615384615449
 20
 110.09811616954475
 11
 28.275077950153666
 21
 110.3162817251506
  0
LINE
  8
204
  6
CONTINUOUS
 62
     7
 10
 25.784615384615449
 20
 110.09811616954475
 11
 27.971030223069935
 21
 111.31038270549551
  0
CIRCLE
  8
204
  6
CONTINUOUS
 62
     7
 10
 60.384419152276379
 20
 120.68053375196224
 40
 2.8301943396169813
  0
TEXT
  8
204
  6
CONTINUOUS
 62
     56
 10
 59.184419152276362
 20
 119.18053375196224
 11
 61.584419152276375
 21
 119.18053375196224
 40
 3
 41
 0.8
  1
1
 50
 0
 72
  5
  0
ENDBLK
  8
0
  0
BLOCK
  8
0
  2
CADWIN-G1
 70
    0
 10
0.0
 20
0.0
  0
LINE
  8
204
  6
CONTINUOUS
 62
     7
 10
 23.134615384615355
 20
 102.93359563789774
 11
 57.664937561250177
 21
 112.88643822424947
  0
LINE
  8
204
  6
CONTINUOUS
 62
     7
 10
 23.134615384615355
 20
 102.93359563789774
 11
 25.62828322865283
 21
 103.11141769393548
  0
LINE
  8
204
  6
CONTINUOUS
 62
     7
 10
 23.134615384615355
 20
 102.93359563789774
 11
 25.340367570267585
 21
 104.11031025728956
  0
CIRCLE
  8
204
  6
CONTINUOUS
 62
     7
 10
 60.384419152276443
 20
 113.67028762054269
 40
 2.8301943396169813
  0
TEXT
  8
204
  6
CONTINUOUS
 62
     56
 10
 59.184419152276426
 20
 112.17028762054269
 11
 61.584419152276439
 21
 112.17028762054269
 40
 3
 41
 0.8
  1
2
 50
 0
 72
  5
  0
ENDBLK
  8
0
  0
BLOCK
  8
0
  2
CADWIN-G2
 70
    0
 10
0.0
 20
0.0
  0
LINE
  8
204
  6
CONTINUOUS
 62
     7
 10
 23.134615384615355
 20
 97.853239235254563
 11
 57.601775241377695
 21
 104.25230165058724
  0
LINE
  8
204
  6
CONTINUOUS
 62
     7
 10
 23.134615384615355
 20
 97.853239235254563
 11
 25.633778681712741
 21
 97.788564553644733
  0
LINE
  8
204
  6
CONTINUOUS
 62
     7
 10
 23.134615384615355
 20
 97.853239235254563
 11
 25.444020225475754
 21
 98.810657263605066
  0
CIRCLE
  8
204
  6
CONTINUOUS
 62
     7
 10
 60.384419152276443
 20
 104.7689183993848
 40
 2.8301943396169813
  0
TEXT
  8
204
  6
CONTINUOUS
 62
     56
 10
 59.184419152276426
 20
 103.2689183993848
 11
 61.584419152276439
 21
 103.2689183993848
 40
 3
 41
 0.8
  1
3
 50
 0
 72
  5
  0
ENDBLK
  8
0
  0
BLOCK
  8
0
  2
CADWIN-G3
 70
    0
 10
0.0
 20
0.0
  0
LINE
  8
204
  6
CONTINUOUS
 62
     7
 10
 23.134615384615355
 20
 89.747547095761419
 11
 57.559589556339382
 21
 87.62492304627925
  0
LINE
  8
204
  6
CONTINUOUS
 62
     7
 10
 23.134615384615355
 20
 89.747547095761419
 11
 25.543360557563467
 21
 89.078258897898067
  0
LINE
  8
204
  6
CONTINUOUS
 62
     7
 10
 23.134615384615355
 20
 89.747547095761419
 11
 25.607337630829836
 21
 90.115846828419507
  0
CIRCLE
  8
204
  6
CONTINUOUS
 62
     7
 10
 60.384419152276507
 20
 89.45074568288851
 40
 2.8301943396169813
  0
TEXT
  8
204
  6
CONTINUOUS
 62
     56
 10
 59.18441915227649
 20
 87.95074568288851
 11
 61.584419152276503
 21
 87.95074568288851
 40
 3
 41
 0.8
  1
4
 50
 0
 72
  5
  0
ENDBLK
  8
0
  0
BLOCK
  8
0
  2
CADWIN-G4
 70
    0
 10
0.0
 20
0.0
  0
LINE
  8
204
  6
CONTINUOUS
 62
     7
 10
 18.338647959183671
 20
 97.962421507064391
 11
 30.768396781789637
 21
 94.584772370486689
  0
POINT
  8
204
  6
CONTINUOUS
 62
     7
 10
 18.338647959183671
 20
 97.962421507064391
  0
LINE
  8
204
  6
CONTINUOUS
 62
     7
 10
 30.768396781789637
 20
 94.584772370486689
 11
 57.56173396156052
 21
 96.540437931441417
  0
CIRCLE
  8
204
  6
CONTINUOUS
 62
     7
 10
 60.384419152276507
 20
 96.746467817896473
 40
 2.8301943396169813
  0
TEXT
  8
204
  6
CONTINUOUS
 62
     56
 10
 59.18441915227649
 20
 95.246467817896473
 11
 61.584419152276503
 21
 95.246467817896473
 40
 3
 41
 0.8
  1
5
 50
 0
 72
  5
  0
ENDBLK
  8
0
  0
BLOCK
  8
0
  2
CADWIN-G5
 70
    0
 10
0.0
 20
0.0
  0
LINE
  8
204
  6
CONTINUOUS
 62
     7
 10
 34.134615384615358
 20
 63.265796703296715
 11
 57.582162086272902
 21
 66.584971880973001
  0
LINE
  8
204
  6
CONTINUOUS
 62
     7
 10
 34.134615384615358
 20
 63.265796703296715
 11
 36.628698103541439
 21
 63.093891522588606
  0
LINE
  8
204
  6
CONTINUOUS
 62
     7
 10
 34.134615384615358
 20
 63.265796703296715
 11
 36.48299345960374
 21
 64.123188338964951
  0
CIRCLE
  8
204
  6
CONTINUOUS
 62
     7
 10
 60.384419152276507
 20
 66.981652276295108
 40
 2.8301943396169813
  0
TEXT
  8
204
  6
CONTINUOUS
 62
     56
 10
 59.18441915227649
 20
 65.481652276295108
 11
 61.584419152276503
 21
 65.481652276295108
 40
 3
 41
 0.8
  1
6
 50
 0
 72
  5
  0
ENDBLK
  8
0
  0
BLOCK
  8
0
  2
CADWIN-G6
 70
    0
 10
0.0
 20
0.0
  0
LINE
  8
204
  6
CONTINUOUS
 62
     7
 10
-1.3541503139717346
 20
 71.873292599864726
 11
-9.2661644058743011
 21
 117.89126593157307
  0
LINE
  8
204
  6
CONTINUOUS
 62
     7
 10
-1.3541503139717346
 20
 71.873292599864726
 11
-1.2562475412236584
 21
 74.371374873747683
  0
LINE
  8
204
  6
CONTINUOUS
 62
     7
 10
-1.3541503139717346
 20
 71.873292599864726
 11
-2.2807732788434292
 21
 74.195224959123365
  0
CIRCLE
  8
204
  6
CONTINUOUS
 62
     7
 10
-9.7457319466248009
 20
 120.68053375196224
 40
 2.8301943396169813
  0
TEXT
  8
204
  6
CONTINUOUS
 62
     56
 10
-10.9457319466248
 20
 119.18053375196224
 11
-8.5457319466248016
 21
 119.18053375196224
 40
 3
 41
 0.8
  1
7
 50
 0
 72
  5
  0
ENDBLK
  8
0
  0
BLOCK
  8
0
  2
CADWIN-G7
 70
    0
 10
0.0
 20
0.0
  0
LINE
  8
204
  6
CONTINUOUS
 62
     7
 10
-41.587912087912109
 20
 85.873292599864726
 11
-48.846540827727736
 21
 117.92025789346427
  0
LINE
  8
204
  6
CONTINUOUS
 62
     7
 10
-41.587912087912109
 20
 85.873292599864726
 11
-41.621165932484608
 21
 88.373071426445421
  0
LINE
  8
204
  6
CONTINUOUS
 62
     7
 10
-41.587912087912109
 20
 85.873292599864726
 11
-42.635042634925867
 21
 88.143428634887883
  0
CIRCLE
  8
204
  6
CONTINUOUS
 62
     7
 10
-49.471742543171104
 20
 120.68053375196224
 40
 2.8301943396169813
  0
TEXT
  8
204
  6
CONTINUOUS
 62
     56
 10
-50.671742543171106
 20
 119.18053375196224
 11
-48.271742543171101
 21
 119.18053375196224
 40
 3
 41
 0.8
  1
8
 50
 0
 72
  5
  0
ENDBLK
  8
0
  0
BLOCK
  8
0
  2
CADWIN-G8
 70
    0
 10
0.0
 20
0.0
  0
LINE
  8
204
  6
CONTINUOUS
 62
     7
 10
-28.229199372056531
 20
 81.873292599864726
 11
-26.807943799201468
 21
 117.85254497021653
  0
LINE
  8
204
  6
CONTINUOUS
 62
     7
 10
-28.229199372056531
 20
 81.873292599864726
 11
-27.613303304294163
 21
 84.296239572812098
  0
LINE
  8
204
  6
CONTINUOUS
 62
     7
 10
-28.229199372056531
 20
 81.873292599864726
 11
-28.652051635099564
 21
 84.33727230019494
  0
CIRCLE
  8
204
  6
CONTINUOUS
 62
     7
 10
-26.696232339089534
 20
 120.68053375196224
 40
 2.8301943396169813
  0
TEXT
  8
204
  6
CONTINUOUS
 62
     56
 10
-27.896232339089533
 20
 119.18053375196224
 11
-25.496232339089534
 21
 119.18053375196224
 40
 3
 41
 0.8
  1
9
 50
 0
 72
  5
  0
ENDBLK
  8
0
  0
BLOCK
  8
0
  2
CADWIN-G9
 70
    0
 10
0.0
 20
0.0
  0
LINE
  8
204
  6
CONTINUOUS
 62
     7
 10
-35.018053375196253
 20
 70.873292599864726
 11
-39.770186396997872
 21
 117.86470128060957
  0
LINE
  8
204
  6
CONTINUOUS
 62
     7
 10
-35.018053375196253
 20
 70.873292599864726
 11
-34.746951416027606
 21
 73.358549875829311
  0
LINE
  8
204
  6
CONTINUOUS
 62
     7
 10
-35.018053375196253
 20
 70.873292599864726
 11
-35.781234613445271
 21
 73.25395519619893
  0
CIRCLE
  8
204
  6
CONTINUOUS
 62
     7
 10
-40.054945054945051
 20
 120.68053375196224
 40
 2.8301943396169813
  0
TEXT
  8
204
  6
CONTINUOUS
 62
     56
 10
-42.45494505494505
 20
 119.18053375196224
 11
-37.654945054945053
 21
 119.18053375196224
 40
 3
 41
 0.8
  1
10
 50
 0
 72
  5
  0
ENDBLK
  8
0
  0
BLOCK
  8
0
  2
CADWIN-G10
 70
    0
 10
0.0
 20
0.0
  0
LINE
  8
204
  6
CONTINUOUS
 62
     7
 10
-11.748920722135024
 20
 63.48390894819466
 11
-17.821057228291863
 21
 117.86781737971971
  0
POINT
  8
204
  6
CONTINUOUS
 62
     7
 10
-11.748920722135024
 20
 63.48390894819466
  0
CIRCLE
  8
204
  6
CONTINUOUS
 62
     7
 10
-18.13510596546314
 20
 120.68053375196224
 40
 2.8301943396169813
  0
TEXT
  8
204
  6
CONTINUOUS
 62
     56
 10
-20.535105965463138
 20
 119.18053375196224
 11
-15.73510596546314
 21
 119.18053375196224
 40
 3
 41
 0.8
  1
11
 50
 0
 72
  5
  0
ENDBLK
  8
0
  0
BLOCK
  8
0
  2
CADWIN-G11
 70
    0
 10
0.0
 20
0.0
  0
LINE
  8
204
  6
CONTINUOUS
 62
     7
 10
 40.134615384615358
 20
 75.777668759811633
 11
 57.590456186872217
 21
 78.597942477753946
  0
LINE
  8
204
  6
CONTINUOUS
 62
     7
 10
 40.134615384615358
 20
 75.777668759811633
 11
 42.631583118143446
 21
 75.654574739974692
  0
LINE
  8
204
  6
CONTINUOUS
 62
     7
 10
 40.134615384615358
 20
 75.777668759811633
 11
 42.465775763871264
 21
 76.680825050930437
  0
CIRCLE
  8
204
  6
CONTINUOUS
 62
     7
 10
 60.384419152276571
 20
 79.049352433281001
 40
 2.8301943396169813
  0
TEXT
  8
204
  6
CONTINUOUS
 62
     56
 10
 57.984419152276573
 20
 77.549352433281001
 11
 62.784419152276556
 21
 77.549352433281001
 40
 3
 41
 0.8
  1
12
 50
 0
 72
  5
  0
ENDBLK
  8
0
  0
BLOCK
  8
0
  2
CADWIN-G12
 70
    0
 10
0.0
 20
0.0
  0
LINE
  8
204
  6
CONTINUOUS
 62
     7
 10
 38.030510683785195
 20
 48.654478694419623
 11
 57.559648835968595
 21
 49.865287743060726
  0
LINE
  8
204
  6
CONTINUOUS
 62
     7
 10
 38.030510683785195
 20
 48.654478694419623
 11
 40.503357790885971
 21
 48.287018240896614
  0
LINE
  8
204
  6
CONTINUOUS
 62
     7
 10
 38.030510683785195
 20
 48.654478694419623
 11
 40.439028557250815
 21
 49.324584397422257
  0
CIRCLE
  8
204
  6
CONTINUOUS
 62
     7
 10
 60.384419152276571
 20
 50.040423861852332
 40
 2.8301943396169813
  0
TEXT
  8
204
  6
CONTINUOUS
 62
     56
 10
 57.984419152276573
 20
 48.540423861852332
 11
 62.784419152276556
 21
 48.540423861852332
 40
 3
 41
 0.8
  1
13
 50
 0
 72
  5
  0
ENDBLK
  8
0
  0
BLOCK
  8
0
  2
CADWIN-G13
 70
    0
 10
0.0
 20
0.0
  0
LINE
  8
0
  6
CONTINUOUS
 62
     7
 10
 13.134615384615298
 20
 15.691669218272068
 11
 12.816238766207949
 21
 15.373292599864726
  0
LINE
  8
0
  6
CONTINUOUS
 62
     7
 10
 13.134615384615298
 20
 16.115933286984003
 11
 12.391974697496021
 21
 15.373292599864726
  0
LINE
  8
0
  6
CONTINUOUS
 62
     7
 10
 12.967710628784092
 20
 16.373292599864726
 11
 11.967710628784094
 21
 15.373292599864726
  0
LINE
  8
0
  6
CONTINUOUS
 62
     7
 10
 12.543446560072164
 20
 16.373292599864726
 11
 11.543446560072166
 21
 15.373292599864726
  0
LINE
  8
0
  6
CONTINUOUS
 62
     7
 10
 12.119182491360235
 20
 16.373292599864726
 11
 11.134615384615298
 21
 15.388725493119779
  0
LINE
  8
0
  6
CONTINUOUS
 62
     7
 10
 11.69491842264831
 20
 16.373292599864726
 11
 11.134615384615298
 21
 15.812989561831712
  0
LINE
  8
0
  6
CONTINUOUS
 62
     7
 10
 11.270654353936379
 20
 16.373292599864726
 11
 11.134615384615298
 21
 16.237253630543648
  0
LINE
  8
0
  6
CONTINUOUS
 62
     7
 10
 21.452992003022647
 20
 16.373292599864726
 11
 21.134615384615298
 21
 16.054915981457384
  0
LINE
  8
0
  6
CONTINUOUS
 62
     7
 10
 21.877256071734575
 20
 16.373292599864726
 11
 21.134615384615298
 21
 15.630651912745449
  0
LINE
  8
0
  6
CONTINUOUS
 62
     7
 10
 22.301520140446502
 20
 16.373292599864726
 11
 21.301520140446502
 21
 15.373292599864726
  0
LINE
  8
0
  6
CONTINUOUS
 62
     7
 10
 22.725784209158427
 20
 16.373292599864726
 11
 21.725784209158427
 21
 15.373292599864726
  0
LINE
  8
0
  6
CONTINUOUS
 62
     7
 10
 23.134615384615298
 20
 16.357859706609673
 11
 22.150048277870351
 21
 15.373292599864726
  0
LINE
  8
0
  6
CONTINUOUS
 62
     7
 10
 23.134615384615298
 20
 15.933595637897737
 11
 22.574312346582282
 21
 15.373292599864726
  0
LINE
  8
0
  6
CONTINUOUS
 62
     7
 10
 23.134615384615298
 20
 15.509331569185806
 11
 22.99857641529421
 21
 15.373292599864726
  0
ENDBLK
  8
0
  0
BLOCK
  8
0
  2
CADWIN-G14
 70
    0
 10
0.0
 20
0.0
  0
LINE
  8
0
  6
CONTINUOUS
 62
     7
 10
 13.134615384615355
 20
 20.691669218272068
 11
 12.816238766208006
 21
 20.373292599864726
  0
LINE
  8
0
  6
CONTINUOUS
 62
     7
 10
 13.134615384615355
 20
 21.115933286984003
 11
 12.391974697496078
 21
 20.373292599864726
  0
LINE
  8
0
  6
CONTINUOUS
 62
     7
 10
 12.967710628784149
 20
 21.373292599864726
 11
 11.96771062878415
 21
 20.373292599864726
  0
LINE
  8
0
  6
CONTINUOUS
 62
     7
 10
 12.543446560072221
 20
 21.373292599864726
 11
 11.543446560072223
 21
 20.373292599864726
  0
LINE
  8
0
  6
CONTINUOUS
 62
     7
 10
 12.119182491360291
 20
 21.373292599864726
 11
 11.134615384615355
 21
 20.388725493119779
  0
LINE
  8
0
  6
CONTINUOUS
 62
     7
 10
 11.694918422648367
 20
 21.373292599864726
 11
 11.134615384615355
 21
 20.812989561831714
  0
LINE
  8
0
  6
CONTINUOUS
 62
     7
 10
 11.270654353936436
 20
 21.373292599864726
 11
 11.134615384615355
 21
 21.237253630543648
  0
LINE
  8
0
  6
CONTINUOUS
 62
     7
 10
 21.452992003022704
 20
 21.373292599864726
 11
 21.134615384615355
 21
 21.054915981457384
  0
LINE
  8
0
  6
CONTINUOUS
 62
     7
 10
 21.877256071734632
 20
 21.373292599864726
 11
 21.134615384615355
 21
 20.630651912745449
  0
LINE
  8
0
  6
CONTINUOUS
 62
     7
 10
 22.301520140446559
 20
 21.373292599864726
 11
 21.301520140446559
 21
 20.373292599864726
  0
LINE
  8
0
  6
CONTINUOUS
 62
     7
 10
 22.725784209158483
 20
 21.373292599864726
 11
 21.725784209158483
 21
 20.373292599864726
  0
LINE
  8
0
  6
CONTINUOUS
 62
     7
 10
 23.134615384615355
 20
 21.357859706609673
 11
 22.150048277870408
 21
 20.373292599864726
  0
LINE
  8
0
  6
CONTINUOUS
 62
     7
 10
 23.134615384615355
 20
 20.933595637897739
 11
 22.574312346582339
 21
 20.373292599864726
  0
LINE
  8
0
  6
CONTINUOUS
 62
     7
 10
 23.134615384615355
 20
 20.509331569185804
 11
 22.998576415294266
 21
 20.373292599864726
  0
ENDBLK
  8
0
  0
BLOCK
  8
0
  2
CADWIN-G15
 70
    0
 10
0.0
 20
0.0
  0
LINE
  8
0
  6
CONTINUOUS
 62
     7
 10
 13.134615384615355
 20
 30.691669218272072
 11
 12.816238766208006
 21
 30.373292599864723
  0
LINE
  8
0
  6
CONTINUOUS
 62
     7
 10
 13.134615384615355
 20
 31.115933286983999
 11
 12.391974697496078
 21
 30.373292599864723
  0
LINE
  8
0
  6
CONTINUOUS
 62
     7
 10
 12.967710628784149
 20
 31.373292599864723
 11
 11.96771062878415
 21
 30.373292599864723
  0
LINE
  8
0
  6
CONTINUOUS
 62
     7
 10
 12.543446560072221
 20
 31.373292599864723
 11
 11.543446560072223
 21
 30.373292599864723
  0
LINE
  8
0
  6
CONTINUOUS
 62
     7
 10
 12.119182491360291
 20
 31.373292599864723
 11
 11.134615384615355
 21
 30.388725493119775
  0
LINE
  8
0
  6
CONTINUOUS
 62
     7
 10
 11.694918422648367
 20
 31.373292599864723
 11
 11.134615384615355
 21
 30.812989561831714
  0
LINE
  8
0
  6
CONTINUOUS
 62
     7
 10
 11.270654353936436
 20
 31.373292599864723
 11
 11.134615384615355
 21
 31.237253630543648
  0
LINE
  8
0
  6
CONTINUOUS
 62
     7
 10
 21.452992003022704
 20
 31.373292599864723
 11
 21.134615384615355
 21
 31.054915981457384
  0
LINE
  8
0
  6
CONTINUOUS
 62
     7
 10
 21.877256071734632
 20
 31.373292599864723
 11
 21.134615384615355
 21
 30.630651912745446
  0
LINE
  8
0
  6
CONTINUOUS
 62
     7
 10
 22.301520140446559
 20
 31.373292599864723
 11
 21.301520140446559
 21
 30.373292599864723
  0
LINE
  8
0
  6
CONTINUOUS
 62
     7
 10
 22.725784209158483
 20
 31.373292599864723
 11
 21.725784209158483
 21
 30.373292599864723
  0
LINE
  8
0
  6
CONTINUOUS
 62
     7
 10
 23.134615384615355
 20
 31.35785970660967
 11
 22.150048277870408
 21
 30.373292599864723
  0
LINE
  8
0
  6
CONTINUOUS
 62
     7
 10
 23.134615384615355
 20
 30.933595637897742
 11
 22.574312346582339
 21
 30.373292599864723
  0
LINE
  8
0
  6
CONTINUOUS
 62
     7
 10
 23.134615384615355
 20
 30.509331569185804
 11
 22.998576415294266
 21
 30.373292599864723
  0
ENDBLK
  8
0
  0
BLOCK
  8
0
  2
CADWIN-G16
 70
    0
 10
0.0
 20
0.0
  0
LINE
  8
0
  6
CONTINUOUS
 62
     7
 10
 13.134615384615355
 20
 35.691669218272068
 11
 12.816238766208006
 21
 35.373292599864726
  0
LINE
  8
0
  6
CONTINUOUS
 62
     7
 10
 13.134615384615355
 20
 36.115933286984003
 11
 12.391974697496078
 21
 35.373292599864726
  0
LINE
  8
0
  6
CONTINUOUS
 62
     7
 10
 12.967710628784149
 20
 36.373292599864726
 11
 11.96771062878415
 21
 35.373292599864726
  0
LINE
  8
0
  6
CONTINUOUS
 62
     7
 10
 12.543446560072221
 20
 36.373292599864726
 11
 11.543446560072223
 21
 35.373292599864726
  0
LINE
  8
0
  6
CONTINUOUS
 62
     7
 10
 12.119182491360291
 20
 36.373292599864726
 11
 11.134615384615355
 21
 35.388725493119779
  0
LINE
  8
0
  6
CONTINUOUS
 62
     7
 10
 11.694918422648367
 20
 36.373292599864726
 11
 11.134615384615355
 21
 35.812989561831714
  0
LINE
  8
0
  6
CONTINUOUS
 62
     7
 10
 11.270654353936436
 20
 36.373292599864726
 11
 11.134615384615355
 21
 36.237253630543648
  0
LINE
  8
0
  6
CONTINUOUS
 62
     7
 10
 21.452992003022704
 20
 36.373292599864726
 11
 21.134615384615355
 21
 36.054915981457384
  0
LINE
  8
0
  6
CONTINUOUS
 62
     7
 10
 21.877256071734632
 20
 36.373292599864726
 11
 21.134615384615355
 21
 35.630651912745449
  0
LINE
  8
0
  6
CONTINUOUS
 62
     7
 10
 22.301520140446559
 20
 36.373292599864726
 11
 21.301520140446559
 21
 35.373292599864726
  0
LINE
  8
0
  6
CONTINUOUS
 62
     7
 10
 22.725784209158483
 20
 36.373292599864726
 11
 21.725784209158483
 21
 35.373292599864726
  0
LINE
  8
0
  6
CONTINUOUS
 62
     7
 10
 23.134615384615355
 20
 36.357859706609673
 11
 22.150048277870408
 21
 35.373292599864726
  0
LINE
  8
0
  6
CONTINUOUS
 62
     7
 10
 23.134615384615355
 20
 35.933595637897739
 11
 22.574312346582339
 21
 35.373292599864726
  0
LINE
  8
0
  6
CONTINUOUS
 62
     7
 10
 23.134615384615355
 20
 35.509331569185804
 11
 22.998576415294266
 21
 35.373292599864726
  0
ENDBLK
  8
0
  0
BLOCK
  8
0
  2
CADWIN-G17
 70
    0
 10
0.0
 20
0.0
  0
LINE
  8
0
  6
CONTINUOUS
 62
     7
 10
 13.134615384615355
 20
 45.691669218272068
 11
 12.816238766208006
 21
 45.373292599864726
  0
LINE
  8
0
  6
CONTINUOUS
 62
     7
 10
 13.134615384615355
 20
 46.115933286984003
 11
 12.391974697496078
 21
 45.373292599864726
  0
LINE
  8
0
  6
CONTINUOUS
 62
     7
 10
 12.967710628784149
 20
 46.373292599864726
 11
 11.96771062878415
 21
 45.373292599864726
  0
LINE
  8
0
  6
CONTINUOUS
 62
     7
 10
 12.543446560072221
 20
 46.373292599864726
 11
 11.543446560072223
 21
 45.373292599864726
  0
LINE
  8
0
  6
CONTINUOUS
 62
     7
 10
 12.119182491360291
 20
 46.373292599864726
 11
 11.134615384615355
 21
 45.388725493119779
  0
LINE
  8
0
  6
CONTINUOUS
 62
     7
 10
 11.694918422648367
 20
 46.373292599864726
 11
 11.134615384615355
 21
 45.812989561831714
  0
LINE
  8
0
  6
CONTINUOUS
 62
     7
 10
 11.270654353936436
 20
 46.373292599864726
 11
 11.134615384615355
 21
 46.237253630543648
  0
LINE
  8
0
  6
CONTINUOUS
 62
     7
 10
 21.452992003022704
 20
 46.373292599864726
 11
 21.134615384615355
 21
 46.054915981457384
  0
LINE
  8
0
  6
CONTINUOUS
 62
     7
 10
 21.877256071734632
 20
 46.373292599864726
 11
 21.134615384615355
 21
 45.630651912745449
  0
LINE
  8
0
  6
CONTINUOUS
 62
     7
 10
 22.301520140446559
 20
 46.373292599864726
 11
 21.301520140446559
 21
 45.373292599864726
  0
LINE
  8
0
  6
CONTINUOUS
 62
     7
 10
 22.725784209158483
 20
 46.373292599864726
 11
 21.725784209158483
 21
 45.373292599864726
  0
LINE
  8
0
  6
CONTINUOUS
 62
     7
 10
 23.134615384615355
 20
 46.357859706609673
 11
 22.150048277870408
 21
 45.373292599864726
  0
LINE
  8
0
  6
CONTINUOUS
 62
     7
 10
 23.134615384615355
 20
 45.933595637897739
 11
 22.574312346582339
 21
 45.373292599864726
  0
LINE
  8
0
  6
CONTINUOUS
 62
     7
 10
 23.134615384615355
 20
 45.509331569185804
 11
 22.998576415294266
 21
 45.373292599864726
  0
ENDBLK
  8
0
  0
BLOCK
  8
0
  2
CADWIN-G18
 70
    0
 10
0.0
 20
0.0
  0
LINE
  8
0
  6
CONTINUOUS
 62
     7
 10
 13.134615384615298
 20
 72.691669218272068
 11
 12.816238766207949
 21
 72.373292599864726
  0
LINE
  8
0
  6
CONTINUOUS
 62
     7
 10
 13.134615384615298
 20
 73.115933286984003
 11
 12.391974697496021
 21
 72.373292599864726
  0
LINE
  8
0
  6
CONTINUOUS
 62
     7
 10
 12.967710628784092
 20
 73.373292599864726
 11
 11.967710628784094
 21
 72.373292599864726
  0
LINE
  8
0
  6
CONTINUOUS
 62
     7
 10
 12.543446560072164
 20
 73.373292599864726
 11
 11.543446560072166
 21
 72.373292599864726
  0
LINE
  8
0
  6
CONTINUOUS
 62
     7
 10
 12.119182491360235
 20
 73.373292599864726
 11
 11.134615384615298
 21
 72.388725493119779
  0
LINE
  8
0
  6
CONTINUOUS
 62
     7
 10
 11.69491842264831
 20
 73.373292599864726
 11
 11.134615384615298
 21
 72.812989561831714
  0
LINE
  8
0
  6
CONTINUOUS
 62
     7
 10
 11.270654353936379
 20
 73.373292599864726
 11
 11.134615384615298
 21
 73.237253630543648
  0
LINE
  8
0
  6
CONTINUOUS
 62
     7
 10
 21.452992003022647
 20
 73.373292599864726
 11
 21.134615384615298
 21
 73.054915981457384
  0
LINE
  8
0
  6
CONTINUOUS
 62
     7
 10
 21.877256071734575
 20
 73.373292599864726
 11
 21.134615384615298
 21
 72.630651912745449
  0
LINE
  8
0
  6
CONTINUOUS
 62
     7
 10
 22.301520140446502
 20
 73.373292599864726
 11
 21.301520140446502
 21
 72.373292599864726
  0
LINE
  8
0
  6
CONTINUOUS
 62
     7
 10
 22.725784209158427
 20
 73.373292599864726
 11
 21.725784209158427
 21
 72.373292599864726
  0
LINE
  8
0
  6
CONTINUOUS
 62
     7
 10
 23.134615384615298
 20
 73.357859706609673
 11
 22.150048277870351
 21
 72.373292599864726
  0
LINE
  8
0
  6
CONTINUOUS
 62
     7
 10
 23.134615384615298
 20
 72.933595637897739
 11
 22.574312346582282
 21
 72.373292599864726
  0
LINE
  8
0
  6
CONTINUOUS
 62
     7
 10
 23.134615384615298
 20
 72.509331569185804
 11
 22.99857641529421
 21
 72.373292599864726
  0
ENDBLK
  8
0
  0
BLOCK
  8
0
  2
CADWIN-G19
 70
    0
 10
0.0
 20
0.0
  0
LINE
  8
0
  6
CONTINUOUS
 62
     7
 10
 13.134615384615355
 20
 77.691669218272068
 11
 12.816238766208006
 21
 77.373292599864726
  0
LINE
  8
0
  6
CONTINUOUS
 62
     7
 10
 13.134615384615355
 20
 78.115933286984003
 11
 12.391974697496078
 21
 77.373292599864726
  0
LINE
  8
0
  6
CONTINUOUS
 62
     7
 10
 12.967710628784149
 20
 78.373292599864726
 11
 11.96771062878415
 21
 77.373292599864726
  0
LINE
  8
0
  6
CONTINUOUS
 62
     7
 10
 12.543446560072221
 20
 78.373292599864726
 11
 11.543446560072223
 21
 77.373292599864726
  0
LINE
  8
0
  6
CONTINUOUS
 62
     7
 10
 12.119182491360291
 20
 78.373292599864726
 11
 11.134615384615355
 21
 77.388725493119779
  0
LINE
  8
0
  6
CONTINUOUS
 62
     7
 10
 11.694918422648367
 20
 78.373292599864726
 11
 11.134615384615355
 21
 77.812989561831714
  0
LINE
  8
0
  6
CONTINUOUS
 62
     7
 10
 11.270654353936436
 20
 78.373292599864726
 11
 11.134615384615355
 21
 78.237253630543648
  0
LINE
  8
0
  6
CONTINUOUS
 62
     7
 10
 21.452992003022704
 20
 78.373292599864726
 11
 21.134615384615355
 21
 78.054915981457384
  0
LINE
  8
0
  6
CONTINUOUS
 62
     7
 10
 21.877256071734632
 20
 78.373292599864726
 11
 21.134615384615355
 21
 77.630651912745449
  0
LINE
  8
0
  6
CONTINUOUS
 62
     7
 10
 22.301520140446559
 20
 78.373292599864726
 11
 21.301520140446559
 21
 77.373292599864726
  0
LINE
  8
0
  6
CONTINUOUS
 62
     7
 10
 22.725784209158483
 20
 78.373292599864726
 11
 21.725784209158483
 21
 77.373292599864726
  0
LINE
  8
0
  6
CONTINUOUS
 62
     7
 10
 23.134615384615355
 20
 78.357859706609673
 11
 22.150048277870408
 21
 77.373292599864726
  0
LINE
  8
0
  6
CONTINUOUS
 62
     7
 10
 23.134615384615355
 20
 77.933595637897739
 11
 22.574312346582339
 21
 77.373292599864726
  0
LINE
  8
0
  6
CONTINUOUS
 62
     7
 10
 23.134615384615355
 20
 77.509331569185804
 11
 22.998576415294266
 21
 77.373292599864726
  0
ENDBLK
  8
0
  0
BLOCK
  8
0
  2
CADWIN-G20
 70
    0
 10
0.0
 20
0.0
  0
LINE
  8
0
  6
CONTINUOUS
 62
     7
 10
 13.134615384615355
 20
 87.691669218272068
 11
 12.816238766208006
 21
 87.373292599864726
  0
LINE
  8
0
  6
CONTINUOUS
 62
     7
 10
 13.134615384615355
 20
 88.115933286984003
 11
 12.391974697496078
 21
 87.373292599864726
  0
LINE
  8
0
  6
CONTINUOUS
 62
     7
 10
 12.967710628784149
 20
 88.373292599864726
 11
 11.96771062878415
 21
 87.373292599864726
  0
LINE
  8
0
  6
CONTINUOUS
 62
     7
 10
 12.543446560072221
 20
 88.373292599864726
 11
 11.543446560072223
 21
 87.373292599864726
  0
LINE
  8
0
  6
CONTINUOUS
 62
     7
 10
 12.119182491360291
 20
 88.373292599864726
 11
 11.134615384615355
 21
 87.388725493119779
  0
LINE
  8
0
  6
CONTINUOUS
 62
     7
 10
 11.694918422648367
 20
 88.373292599864726
 11
 11.134615384615355
 21
 87.812989561831714
  0
LINE
  8
0
  6
CONTINUOUS
 62
     7
 10
 11.270654353936436
 20
 88.373292599864726
 11
 11.134615384615355
 21
 88.237253630543648
  0
LINE
  8
0
  6
CONTINUOUS
 62
     7
 10
 21.452992003022704
 20
 88.373292599864726
 11
 21.134615384615355
 21
 88.054915981457384
  0
LINE
  8
0
  6
CONTINUOUS
 62
     7
 10
 21.877256071734632
 20
 88.373292599864726
 11
 21.134615384615355
 21
 87.630651912745449
  0
LINE
  8
0
  6
CONTINUOUS
 62
     7
 10
 22.301520140446559
 20
 88.373292599864726
 11
 21.301520140446559
 21
 87.373292599864726
  0
LINE
  8
0
  6
CONTINUOUS
 62
     7
 10
 22.725784209158483
 20
 88.373292599864726
 11
 21.725784209158483
 21
 87.373292599864726
  0
LINE
  8
0
  6
CONTINUOUS
 62
     7
 10
 23.134615384615355
 20
 88.357859706609673
 11
 22.150048277870408
 21
 87.373292599864726
  0
LINE
  8
0
  6
CONTINUOUS
 62
     7
 10
 23.134615384615355
 20
 87.933595637897739
 11
 22.574312346582339
 21
 87.373292599864726
  0
LINE
  8
0
  6
CONTINUOUS
 62
     7
 10
 23.134615384615355
 20
 87.509331569185804
 11
 22.998576415294266
 21
 87.373292599864726
  0
ENDBLK
  8
0
  0
BLOCK
  8
0
  2
CADWIN-G21
 70
    0
 10
0.0
 20
0.0
  0
LINE
  8
0
  6
CONTINUOUS
 62
     7
 10
 13.134615384615355
 20
 92.691669218272068
 11
 12.816238766208006
 21
 92.373292599864726
  0
LINE
  8
0
  6
CONTINUOUS
 62
     7
 10
 13.134615384615355
 20
 93.115933286984003
 11
 12.391974697496078
 21
 92.373292599864726
  0
LINE
  8
0
  6
CONTINUOUS
 62
     7
 10
 12.967710628784149
 20
 93.373292599864726
 11
 11.96771062878415
 21
 92.373292599864726
  0
LINE
  8
0
  6
CONTINUOUS
 62
     7
 10
 12.543446560072221
 20
 93.373292599864726
 11
 11.543446560072223
 21
 92.373292599864726
  0
LINE
  8
0
  6
CONTINUOUS
 62
     7
 10
 12.119182491360291
 20
 93.373292599864726
 11
 11.134615384615355
 21
 92.388725493119779
  0
LINE
  8
0
  6
CONTINUOUS
 62
     7
 10
 11.694918422648367
 20
 93.373292599864726
 11
 11.134615384615355
 21
 92.812989561831714
  0
LINE
  8
0
  6
CONTINUOUS
 62
     7
 10
 11.270654353936436
 20
 93.373292599864726
 11
 11.134615384615355
 21
 93.237253630543648
  0
LINE
  8
0
  6
CONTINUOUS
 62
     7
 10
 21.452992003022704
 20
 93.373292599864726
 11
 21.134615384615355
 21
 93.054915981457384
  0
LINE
  8
0
  6
CONTINUOUS
 62
     7
 10
 21.877256071734632
 20
 93.373292599864726
 11
 21.134615384615355
 21
 92.630651912745449
  0
LINE
  8
0
  6
CONTINUOUS
 62
     7
 10
 22.301520140446559
 20
 93.373292599864726
 11
 21.301520140446559
 21
 92.373292599864726
  0
LINE
  8
0
  6
CONTINUOUS
 62
     7
 10
 22.725784209158483
 20
 93.373292599864726
 11
 21.725784209158483
 21
 92.373292599864726
  0
LINE
  8
0
  6
CONTINUOUS
 62
     7
 10
 23.134615384615355
 20
 93.357859706609673
 11
 22.150048277870408
 21
 92.373292599864726
  0
LINE
  8
0
  6
CONTINUOUS
 62
     7
 10
 23.134615384615355
 20
 92.933595637897739
 11
 22.574312346582339
 21
 92.373292599864726
  0
LINE
  8
0
  6
CONTINUOUS
 62
     7
 10
 23.134615384615355
 20
 92.509331569185804
 11
 22.998576415294266
 21
 92.373292599864726
  0
ENDBLK
  8
0
  0
BLOCK
  8
0
  2
CADWIN-G22
 70
    0
 10
0.0
 20
0.0
  0
LINE
  8
0
  6
CONTINUOUS
 62
     7
 10
 13.134615384615355
 20
 102.69166921827207
 11
 12.816238766208006
 21
 102.37329259986473
  0
LINE
  8
0
  6
CONTINUOUS
 62
     7
 10
 13.134615384615355
 20
 103.115933286984
 11
 12.391974697496078
 21
 102.37329259986473
  0
LINE
  8
0
  6
CONTINUOUS
 62
     7
 10
 12.967710628784149
 20
 103.37329259986473
 11
 11.96771062878415
 21
 102.37329259986473
  0
LINE
  8
0
  6
CONTINUOUS
 62
     7
 10
 12.543446560072221
 20
 103.37329259986473
 11
 11.543446560072223
 21
 102.37329259986473
  0
LINE
  8
0
  6
CONTINUOUS
 62
     7
 10
 12.119182491360291
 20
 103.37329259986473
 11
 11.134615384615355
 21
 102.38872549311978
  0
LINE
  8
0
  6
CONTINUOUS
 62
     7
 10
 11.694918422648367
 20
 103.37329259986473
 11
 11.134615384615355
 21
 102.81298956183171
  0
LINE
  8
0
  6
CONTINUOUS
 62
     7
 10
 11.270654353936436
 20
 103.37329259986473
 11
 11.134615384615355
 21
 103.23725363054365
  0
LINE
  8
0
  6
CONTINUOUS
 62
     7
 10
 21.452992003022704
 20
 103.37329259986473
 11
 21.134615384615355
 21
 103.05491598145738
  0
LINE
  8
0
  6
CONTINUOUS
 62
     7
 10
 21.877256071734632
 20
 103.37329259986473
 11
 21.134615384615355
 21
 102.63065191274545
  0
LINE
  8
0
  6
CONTINUOUS
 62
     7
 10
 22.301520140446559
 20
 103.37329259986473
 11
 21.301520140446559
 21
 102.37329259986473
  0
LINE
  8
0
  6
CONTINUOUS
 62
     7
 10
 22.725784209158483
 20
 103.37329259986473
 11
 21.725784209158483
 21
 102.37329259986473
  0
LINE
  8
0
  6
CONTINUOUS
 62
     7
 10
 23.134615384615355
 20
 103.35785970660967
 11
 22.150048277870408
 21
 102.37329259986473
  0
LINE
  8
0
  6
CONTINUOUS
 62
     7
 10
 23.134615384615355
 20
 102.93359563789774
 11
 22.574312346582339
 21
 102.37329259986473
  0
LINE
  8
0
  6
CONTINUOUS
 62
     7
 10
 23.134615384615355
 20
 102.5093315691858
 11
 22.998576415294266
 21
 102.37329259986473
  0
ENDBLK
  8
0
  0
ENDSEC
  0
SECTION
  2
ENTITIES
  0
LINE
  8
0
  6
CONTINUOUS
 62
     5
 10
-89.999999999999972
 20
-138.5
 11
-89.999999999999972
 21
 138.5
  0
LINE
  8
0
  6
CONTINUOUS
 62
     5
 10
 94.999999999999972
 20
 138.5
 11
 94.999999999999972
 21
-138.5
  0
LINE
  8
0
  6
CONTINUOUS
 62
     5
 10
 94.999999999999972
 20
-138.5
 11
-89.999999999999972
 21
-138.5
  0
LINE
  8
0
  6
CONTINUOUS
 62
     5
 10
-89.999999999999972
 20
 138.5
 11
 94.999999999999972
 21
 138.5
  0
LINE
  8
0
  6
CONTINUOUS
 62
     5
 10
 94.999999999999972
 20
-99.5
 11
-89.999999999999972
 21
-99.5
  0
LINE
  8
0
  6
CONTINUOUS
 62
     5
 10
 94.999999999999972
 20
-107.5
 11
-89.999999999999972
 21
-107.5
  0
LINE
  8
0
  6
CONTINUOUS
 62
     5
 10
 94.999999999999972
 20
-120.5
 11
-89.999999999999972
 21
-120.5
  0
LINE
  8
0
  6
CONTINUOUS
 62
     5
 10
 15
 20
-127.5
 11
-89.999999999999972
 21
-127.5
  0
LINE
  8
0
  6
CONTINUOUS
 62
     5
 10
 15
 20
-138.5
 11
 15
 21
-99.5
  0
LINE
  8
0
  6
CONTINUOUS
 62
     5
 10
-63.75
 20
-120.5
 11
-63.75
 21
-138.5
  0
LINE
  8
0
  6
CONTINUOUS
 62
     5
 10
-37.499999999999993
 20
-120.5
 11
-37.499999999999993
 21
-138.5
  0
LINE
  8
0
  6
CONTINUOUS
 62
     5
 10
-11.249999999999996
 20
-120.5
 11
-11.249999999999996
 21
-138.5
  0
LINE
  8
0
  6
CONTINUOUS
 62
     5
 10
-89.999999999999972
 20
-113.5
 11
 15
 21
-113.5
  0
LINE
  8
0
  6
CONTINUOUS
 62
     5
 10
 79
 20
-99.5
 11
 79
 21
-120.5
  0
LINE
  8
0
  6
CONTINUOUS
 62
     5
 10
 75.666666666666657
 20
-116.49999999999997
 11
 18.333333333333329
 21
-116.49999999999997
  0
TEXT
  8
0
  6
CONTINUOUS
 62
     5
 10
-84.275000017881382
 20
-127
 11
-69.475000017881385
 21
-127
 40
 3
 41
 0.8
  1
承認
 50
 0
 72
  5
  0
TEXT
  8
0
  6
CONTINUOUS
 62
     5
 10
-58.025000017881382
 20
-127
 11
-43.225000017881385
 21
-127
 40
 3
 41
 0.8
  1
検図
 50
 0
 72
  5
  0
TEXT
  8
0
  6
CONTINUOUS
 62
     5
 10
-31.775000017881396
 20
-127
 11
-16.975000017881392
 21
-127
 40
 3
 41
 0.8
  1
設計
 50
 0
 72
  5
  0
TEXT
  8
0
  6
CONTINUOUS
 62
     5
 10
-5.5250000178813927
 20
-127
 11
 9.274999982118608
 21
-127
 40
 3
 41
 0.8
  1
製図
 50
 0
 72
  5
  0
TEXT
  8
0
  6
CONTINUOUS
 62
     3
 10
-5.925000020861626
 20
-134.75
 11
 9.6749999791383754
 21
-134.75
 40
 3.5
 41
 0.8
  1
大塚
 50
 0
 72
  5
  0
TEXT
  8
0
  6
CONTINUOUS
 62
     3
 10
-71.999998104572271
 20
-118.49999999999997
 11
-17.799998104572268
 21
-118.49999999999997
 40
 3
 41
 0.8
  1
接液部構造断面図
 50
 0
 72
  5
  0
TEXT
  8
0
  6
CONTINUOUS
 62
     3
 10
 82.400000008940694
 20
-115.49999999999997
 11
 91.600000008940697
 21
-115.49999999999997
 40
 3
 41
 0.8
  1
non
 50
 0
 72
  5
  0
TEXT
  8
0
  6
CONTINUOUS
 62
     5
 10
 56.199999946355803
 20
-137
 11
 83.9999999463558
 21
-137
 40
 8
 41
 0.8
  1
神洋
 50
 0
 72
  5
  0
TEXT
  8
0
  6
CONTINUOUS
 62
     5
 10
 24.200000005960465
 20
-106.49999999999997
 11
 69.800000005960456
 21
-106.49999999999997
 40
 3
 41
 0.8
  1
図面番号
 50
 0
 72
  5
  0
TEXT
  8
0
  6
CONTINUOUS
 62
     5
 10
 82.100000011920926
 20
-106.49999999999997
 11
 91.900000011920923
 21
-106.49999999999997
 40
 3
 41
 0.8
  1
尺度
 50
 0
 72
  5
  0
TEXT
  8
0
  6
CONTINUOUS
 62
     5
 10
-72.29999999403951
 20
-106.49999999999997
 11
-2.6999999940395156
 21
-106.49999999999997
 40
 3
 41
 0.8
  1
図面名称
 50
 0
 72
  5
  0
TEXT
  8
0
  6
CONTINUOUS
 62
     3
 10
 24.199999991059297
 20
-113.49999999999997
 11
 69.799999991059295
 21
-113.49999999999997
 40
 3
 41
 0.8
  1
CAP-0-136
 50
 0
 72
  5
  0
TEXT
  8
0
  6
CONTINUOUS
 62
     3
 10
-87.499999982118567
 20
-112.5
 11
-14.699999982118557
 21
-112.5
 40
 3
 41
 0.8
  1
ＫＰ型　ポンプ（１０Ａ）
 50
 0
 72
  5
  0
TEXT
  8
0
  6
CONTINUOUS
 62
     5
 10
-59.225000071525557
 20
-122.99999999999997
 11
-42.025000071525554
 21
-122.99999999999997
 40
 2
 41
 0.8
  1
CHECKED
 50
 0
 72
  5
  0
TEXT
  8
0
  6
CONTINUOUS
 62
     5
 10
-34.2750000834465
 20
-122.99999999999997
 11
-14.475000083446503
 21
-122.99999999999997
 40
 2
 41
 0.8
  1
DESIGNED
 50
 0
 72
  5
  0
TEXT
  8
0
  6
CONTINUOUS
 62
     5
 10
-4.1250000476837156
 20
-122.99999999999997
 11
 7.8749999523162835
 21
-122.99999999999997
 40
 2
 41
 0.8
  1
DRAWN
 50
 0
 72
  5
  0
TEXT
  8
0
  6
CONTINUOUS
 62
     5
 10
-43.500000047683713
 20
-102
 11
-31.50000004768372
 21
-102
 40
 2
 41
 0.8
  1
TITLE
 50
 0
 72
  5
  0
TEXT
  8
0
  6
CONTINUOUS
 62
     5
 10
-86.7750000834465
 20
-122.99999999999997
 11
-66.975000083446503
 21
-122.99999999999997
 40
 2
 41
 0.8
  1
APPROVED
 50
 0
 72
  5
  0
TEXT
  8
0
  6
CONTINUOUS
 62
     5
 10
 80.999999952316287
 20
-102
 11
 92.999999952316287
 21
-102
 40
 2
 41
 0.8
  1
SCALE
 50
 0
 72
  5
  0
TEXT
  8
0
  6
CONTINUOUS
 62
     5
 10
 57.945188630431907
 20
-102
 11
 64.745188630431912
 21
-102
 40
 2
 41
 0.8
  1
NO.
 50
 0
 72
  5
  0
TEXT
  8
0
  6
CONTINUOUS
 62
     5
 10
 23.654930138629179
 20
-102
 11
 40.854930138629186
 21
-102
 40
 2
 41
 0.8
  1
DRAWING
 50
 0
 72
  5
  0
TEXT
  8
0
  6
CONTINUOUS
 62
     5
 10
 27.747898772506716
 20
-136.00000000461381
 11
 47.947898772506719
 21
-136.00000000461381
 40
 3.5
 41
 0.8
  1
株式会社
 50
 0
 72
  5
  0
TEXT
  8
0
  6
CONTINUOUS
 62
     5
 10
 22.763977397758246
 20
-125.99999999999997
 11
 76.363977397758248
 21
-125.99999999999997
 40
 4
 41
 0.8
  1
SINYO CO.,LTD
 50
 0
 72
  5
  0
LINE
  8
0
  6
CONTINUOUS
 62
     5
 10
-89.999999999999972
 20
 0.0000000000000014
 11
-94.999999999999972
 21
 0.0000000000000014
  0
TEXT
  8
0
  6
CONTINUOUS
 62
     3
 10
-32.175000020861624
 20
-134.75
 11
-16.575000020861619
 21
-134.75
 40
 3.5
 41
 0.8
  1
山田
 50
 0
 72
  5
  0
LINE
  8
0
  6
CENTER
 62
     7
 10
 17.134615384615355
 20
 132.92307692307693
 11
 17.134615384615365
 21
-21.298819813982533
  0
LINE
  8
0
  6
CONTINUOUS
 62
     3
 10
 34.134615384615358
 20
 32.873292599864733
 11
 34.134615384615358
 21
 85.873292599864726
  0
LINE
  8
0
  6
CENTER
 62
     7
 10
 50.442307692307566
 20
 59.373292599864726
 11
-76.769230769230916
 21
 59.37329259986474
  0
LINE
  8
5
  6
CONTINUOUS
 62
     4
 10
 24.634621384615137
 20
 129.37329259986473
 11
 9.6346093846156169
 21
 129.37329259986473
  0
LINE
  8
0
  6
CONTINUOUS
 62
     3
 10
 20.134615384615355
 20
 129.37329259986473
 11
 20.134615384615355
 21
 103.37329259986473
  0
LINE
  8
0
  6
CONTINUOUS
 62
     3
 10
 14.134615384615355
 20
 129.37329259986473
 11
 14.134615384615357
 21
 103.35378738907707
  0
LINE
  8
0
  6
CONTINUOUS
 62
     3
 10
 6.4846153846153776
 20
 74.873292599864726
 11
 11.134615384615355
 21
 74.873292599864726
  0
LINE
  8
0
  6
CONTINUOUS
 62
     3
 10
 23.134615384615355
 20
 74.873292599864726
 11
 27.784615384615446
 21
 74.873292599864726
  0
LINE
  8
0
  6
CONTINUOUS
 62
     3
 10
-47.865384615384642
 20
 85.873292599864726
 11
 9.4846153846153811
 21
 85.873292599864726
  0
LINE
  8
0
  6
CONTINUOUS
 62
     3
 10
 24.78461538461535
 20
 85.873292599864726
 11
 34.134615384615358
 21
 85.873292599864726
  0
LINE
  8
0
  6
CONTINUOUS
 62
     3
 10
 24.134615384615362
 20
 66.373292599864698
 11
-18.865384615384645
 21
 66.373292599864726
  0
LINE
  8
0
  6
CONTINUOUS
 62
     3
 10
-18.865384615384642
 20
 52.373292599864726
 11
 24.134615384615376
 21
 52.373292599864733
  0
LINE
  8
0
  6
CONTINUOUS
 62
     3
 10
 27.134615384615355
 20
 65.373292599864726
 11
 27.134615384615355
 21
 53.373292599864733
  0
LINE
  8
0
  6
CONTINUOUS
 62
     3
 10
 24.134615384615355
 20
 66.373292599864726
 11
 24.134615384615355
 21
 52.373292599864733
  0
LINE
  8
0
  6
CONTINUOUS
 62
     3
 10
 27.134615384615355
 20
 53.373292599864733
 11
 24.134615384615355
 21
 52.373292599864733
  0
LINE
  8
0
  6
CONTINUOUS
 62
     3
 10
 24.134615384615355
 20
 66.373292599864726
 11
 27.134615384615355
 21
 65.373292599864726
  0
LINE
  8
0
  6
CONTINUOUS
 62
     3
 10
-18.865384615384642
 20
 52.373292599864726
 11
-18.865384615384642
 21
 66.373292599864726
  0
LINE
  8
0
  6
CONTINUOUS
 62
     3
 10
 6.4846153846153776
 20
 77.873292599864726
 11
 11.134615384615355
 21
 77.873292599864726
  0
LINE
  8
0
  6
CONTINUOUS
 62
     3
 10
 23.134615384615355
 20
 77.873292599864726
 11
 27.784615384615446
 21
 77.873292599864726
  0
LINE
  8
0
  6
CONTINUOUS
 62
     3
 10
 27.784615384615446
 20
 77.873292599864726
 11
 27.784615384615446
 21
 74.873292599864726
  0
LINE
  8
0
  6
CONTINUOUS
 62
     3
 10
 6.4846153846153776
 20
 77.873292599864726
 11
 6.4846153846153776
 21
 74.873292599864726
  0
LINE
  8
0
  6
CONTINUOUS
 62
     3
 10
 9.1346153846153548
 20
 68.373292599864698
 11
 29.134615384615355
 21
 68.373292599864698
  0
LINE
  8
0
  6
CONTINUOUS
 62
     3
 10
 29.134615384615355
 20
 50.373292599864733
 11
 9.1346153846153548
 21
 50.373292599864733
  0
LINE
  8
0
  6
CONTINUOUS
 62
     3
 10
 29.134615384615355
 20
 68.373292599864698
 11
 29.134615384615355
 21
 50.373292599864733
  0
LINE
  8
0
  6
CONTINUOUS
 62
     3
 10
 31.134615384615355
 20
 59.373292599864726
 11
 29.134615384615355
 21
 68.373292599864698
  0
LINE
  8
0
  6
CONTINUOUS
 62
     3
 10
 31.134615384615355
 20
 59.373292599864726
 11
 29.134615384615355
 21
 50.373292599864733
  0
LINE
  8
0
  6
CONTINUOUS
 62
     3
 10
 20.634615384615298
 20
 72.373292599864726
 11
 20.634615384615298
 21
 68.373292599864698
  0
LINE
  8
0
  6
CONTINUOUS
 62
     3
 10
 13.634615384615469
 20
 72.373292599864726
 11
 13.634615384615469
 21
 68.373292599864698
  0
LINE
  8
0
  6
CONTINUOUS
 62
     3
 10
 9.1346153846153548
 20
 66.373292599864698
 11
 9.1346153846153548
 21
 71.873292599864726
  0
LINE
  8
0
  6
CONTINUOUS
 62
     3
 10
 9.1346153846153548
 20
 71.873292599864726
 11
-25.865384615384645
 21
 71.873292599864726
  0
LINE
  8
0
  6
CONTINUOUS
 62
     3
 10
 3.1346153846153548
 20
 71.873292599864726
 11
 3.1346153846153548
 21
 66.373292599864698
  0
LINE
  8
0
  6
CONTINUOUS
 62
     3
 10
-2.8653846153846452
 20
 71.873292599864726
 11
-2.8653846153846452
 21
 66.373292599864698
  0
LINE
  8
0
  6
CONTINUOUS
 62
     3
 10
-8.8653846153846452
 20
 71.873292599864726
 11
-8.8653846153846452
 21
 66.373292599864698
  0
LINE
  8
0
  6
CONTINUOUS
 62
     3
 10
-14.865384615384647
 20
 71.873292599864726
 11
-14.865384615384647
 21
 66.373292599864698
  0
LINE
  8
0
  6
CONTINUOUS
 62
     3
 10
-25.865384615384645
 20
 81.873292599864726
 11
-25.865384615384645
 21
 71.873292599864726
  0
LINE
  8
0
  6
CONTINUOUS
 62
     3
 10
-17.865384615384645
 20
 66.873292599864726
 11
-31.865384615384645
 21
 66.873292599864726
  0
LINE
  8
0
  6
CONTINUOUS
 62
     3
 10
-25.865384615384645
 20
 81.873292599864726
 11
-31.865384615384645
 21
 81.873292599864726
  0
LINE
  8
0
  6
CONTINUOUS
 62
     3
 10
-17.865384615384645
 20
 66.373292599864698
 11
-17.865384615384645
 21
 66.873292599864726
  0
LINE
  8
0
  6
CONTINUOUS
 62
     3
 10
-2.8653846153846452
 20
 46.87329259986474
 11
-2.8653846153846487
 21
 52.373292599864754
  0
LINE
  8
0
  6
CONTINUOUS
 62
     3
 10
-8.8653846153846452
 20
 46.87329259986474
 11
-8.8653846153846487
 21
 52.373292599864754
  0
LINE
  8
0
  6
CONTINUOUS
 62
     3
 10
-14.865384615384647
 20
 46.873292599864733
 11
-14.865384615384647
 21
 52.373292599864747
  0
LINE
  8
0
  6
CONTINUOUS
 62
     3
 10
-25.865384615384645
 20
 36.873292599864733
 11
-25.865384615384645
 21
 46.873292599864733
  0
LINE
  8
0
  6
CONTINUOUS
 62
     3
 10
-17.865384615384649
 20
 51.873292599864733
 11
-31.865384615384645
 21
 51.873292599864733
  0
LINE
  8
0
  6
CONTINUOUS
 62
     3
 10
-25.865384615384645
 20
 36.873292599864733
 11
-31.865384615384645
 21
 36.873292599864733
  0
LINE
  8
0
  6
CONTINUOUS
 62
     3
 10
-17.865384615384649
 20
 52.373292599864747
 11
-17.865384615384649
 21
 51.873292599864733
  0
LINE
  8
0
  6
CONTINUOUS
 62
     3
 10
 9.1346153846153548
 20
 52.373292599864754
 11
 9.1346153846153548
 21
 46.87329259986474
  0
LINE
  8
0
  6
CONTINUOUS
 62
     3
 10
 9.1346153846153548
 20
 46.87329259986474
 11
-25.865384615384645
 21
 46.873292599864733
  0
LINE
  8
0
  6
CONTINUOUS
 62
     3
 10
 3.1346153846153548
 20
 46.87329259986474
 11
 3.1346153846153513
 21
 52.373292599864754
  0
LINE
  8
0
  6
CONTINUOUS
 62
     3
 10
-18.865384615384645
 20
 65.373292599864726
 11
-53.445137445809621
 21
 65.373292599864726
  0
LINE
  8
0
  6
CONTINUOUS
 62
     3
 10
-18.865384615384645
 20
 53.373292599864719
 11
-58.692813888570548
 21
 53.373292599864719
  0
LINE
  8
0
  6
CONTINUOUS
 62
     3
 10
-38.865384615384642
 20
 65.373292599864726
 11
-38.865384615384642
 21
 53.373292599864719
  0
LINE
  8
0
  6
CONTINUOUS
 62
     3
 10
-31.865384615384645
 20
 81.873292599864726
 11
-31.865384615384645
 21
 65.373292599864726
  0
LINE
  8
0
  6
CONTINUOUS
 62
     3
 10
-31.865384615384645
 20
 53.373292599864719
 11
-31.865384615384645
 21
 36.873292599864719
  0
LINE
  8
0
  6
CONTINUOUS
 62
     3
 10
-18.865384615384645
 20
 71.873292599864726
 11
-18.865384615384645
 21
 82.873292599864726
  0
LINE
  8
0
  6
CONTINUOUS
 62
     3
 10
-15.865384615384647
 20
 82.873292599864726
 11
-45.865384615384642
 21
 82.873292599864726
  0
LINE
  8
0
  6
CONTINUOUS
 62
     3
 10
-15.865384615384647
 20
 82.873292599864726
 11
-15.865384615384647
 21
 85.873292599864726
  0
LINE
  8
0
  6
CONTINUOUS
 62
     3
 10
-45.865384615384642
 20
 82.873292599864726
 11
-45.865384615384642
 21
 85.873292599864726
  0
LINE
  8
0
  6
CONTINUOUS
 62
     3
 10
-36.865384615384642
 20
 70.873292599864726
 11
-36.865384615384642
 21
 65.373292599864726
  0
LINE
  8
0
  6
CONTINUOUS
 62
     3
 10
-33.865384615384642
 20
 65.373292599864726
 11
-33.865384615384642
 21
 70.873292599864726
  0
LINE
  8
0
  6
CONTINUOUS
 62
     3
 10
-36.865384615384642
 20
 70.873292599864726
 11
-33.865384615384642
 21
 70.873292599864726
  0
LINE
  8
0
  6
CENTER
 62
     7
 10
-28.865384615384645
 20
 62.873292599864726
 11
-28.865384615384645
 21
 55.873292599864719
  0
CIRCLE
  8
0
  6
CONTINUOUS
 62
     3
 10
-28.865384615384645
 20
 59.373292599864726
 40
 2.5
  0
LINE
  8
0
  6
CONTINUOUS
 62
     3
 10
-15.865384615384643
 20
 35.873292599864719
 11
-45.865384615384642
 21
 35.873292599864719
  0
LINE
  8
0
  6
CONTINUOUS
 62
     3
 10
-15.865384615384643
 20
 35.873292599864719
 11
-15.865384615384643
 21
 32.873292599864719
  0
LINE
  8
0
  6
CONTINUOUS
 62
     3
 10
-45.865384615384642
 20
 35.873292599864719
 11
-45.865384615384642
 21
 32.873292599864719
  0
LINE
  8
0
  6
CONTINUOUS
 62
     3
 10
-18.865384615384649
 20
 46.873292599864733
 11
-18.865384615384642
 21
 35.873292599864719
  0
LINE
  8
0
  6
CONTINUOUS
 62
     3
 10
-36.865384615384642
 20
 47.873292599864733
 11
-36.865384615384642
 21
 53.373292599864733
  0
LINE
  8
0
  6
CONTINUOUS
 62
     3
 10
-33.865384615384642
 20
 53.373292599864733
 11
-33.865384615384642
 21
 47.873292599864733
  0
LINE
  8
0
  6
CONTINUOUS
 62
     3
 10
-36.865384615384642
 20
 47.873292599864733
 11
-33.865384615384642
 21
 47.873292599864733
  0
LINE
  8
0
  6
CONTINUOUS
 62
     3
 10
-38.865384615384642
 20
 62.373292599864726
 11
-54.286139540025971
 21
 62.373292599864726
  0
LINE
  8
0
  6
CONTINUOUS
 62
     3
 10
-38.865384615384642
 20
 56.373292599864719
 11
-57.851811794354191
 21
 56.373292599864719
  0
LINE
  8
0
  6
CONTINUOUS
 62
     3
 10
-40.865384615384642
 20
 62.373292599864726
 11
-40.865384615384642
 21
 56.373292599864719
  0
LINE
  8
0
  6
CONTINUOUS
 62
     7
 10
-40.865384615384642
 20
 61.873292599864726
 11
-54.508822988544424
 21
 61.873292599864726
  0
LINE
  8
0
  6
CONTINUOUS
 62
     7
 10
-40.865384615384642
 20
 56.873292599864719
 11
-57.629128345835738
 21
 56.873292599864719
  0
LINE
  8
0
  6
CONTINUOUS
 62
     3
 10
-41.865384615384642
 20
 82.873292599864726
 11
-41.865384615384642
 21
 69.873292599864726
  0
LINE
  8
0
  6
CONTINUOUS
 62
     3
 10
-41.865384615384642
 20
 69.873292599864726
 11
-53.581318190646783
 21
 69.873292599864726
  0
LINE
  8
0
  6
CONTINUOUS
 62
     3
 10
-47.865384615384642
 20
 90.873292599864726
 11
-47.865384615384642
 21
 85.873292599864726
  0
LINE
  8
0
  6
CONTINUOUS
 62
     3
 10
-47.865384615384642
 20
 27.873292599864712
 11
-47.865384615384642
 21
 32.873292599864719
  0
LINE
  8
0
  6
CONTINUOUS
 62
     3
 10
-56.068975667190074
 20
 27.873292599864712
 11
-47.865384615384642
 21
 27.873292599864712
  0
LINE
  8
0
  6
CONTINUOUS
 62
     3
 10
-56.068975667190074
 20
 90.873292599864726
 11
-47.865384615384642
 21
 90.873292599864726
  0
ARC
  8
0
  6
CONTINUOUS
 62
     3
 10
-46.233103819712596
 20
 82.998292599864726
 40
 12.600000000000005
 50
 141.31781495713261
 51
-141.31781495713261
  0
ARC
  8
0
  6
CONTINUOUS
 62
     3
 10
-65.904847514667566
 20
 67.248292599864726
 40
 12.600000000000005
 50
-38.682188113336416
 51
 38.682188113336416
  0
ARC
  8
0
  6
CONTINUOUS
 62
     3
 10
-46.233103819712596
 20
 51.498292599864733
 40
 12.600000000000005
 50
 141.31781495713261
 51
-141.31781495713261
  0
ARC
  8
0
  6
CONTINUOUS
 62
     3
 10
-65.904847514667566
 20
 35.748292599864733
 40
 12.600000000000005
 50
-38.682188113336416
 51
 38.682188113336416
  0
LINE
  8
5
  6
CONTINUOUS
 62
     4
 10
 24.634621384615116
 20
-10.626707400135274
 11
 9.6346093846156009
 21
-10.626707400135272
  0
LINE
  8
0
  6
CONTINUOUS
 62
     7
 10
 9.6346093846156009
 20
-10.626707400135274
 11
 9.6346093846156009
 21
 4.3732925998647261
  0
LINE
  8
0
  6
CONTINUOUS
 62
     7
 10
 9.6346093846156009
 20
 4.3732925998647261
 11
 8.4846153846153847
 21
 4.3732925998647261
  0
LINE
  8
0
  6
CONTINUOUS
 62
     7
 10
 24.634621384615116
 20
-10.626707400135274
 11
 24.634621384615116
 21
 4.3732925998647296
  0
LINE
  8
0
  6
CONTINUOUS
 62
     7
 10
 24.634621384615116
 20
 4.3732925998647296
 11
 25.784615384615353
 21
 4.3732925998647296
  0
LINE
  8
0
  6
CONTINUOUS
 62
     3
 10
 13.634615384615469
 20
 46.373292599864726
 11
 13.634615384615469
 21
 50.373292599864754
  0
LINE
  8
0
  6
CONTINUOUS
 62
     3
 10
 20.634615384615298
 20
 46.373292599864726
 11
 20.634615384615298
 21
 50.373292599864754
  0
LINE
  8
0
  6
CONTINUOUS
 62
     3
 10
 6.4846153846153776
 20
 43.873292599864726
 11
 11.134615384615355
 21
 43.873292599864726
  0
LINE
  8
5
  6
CONTINUOUS
 62
     4
 10
 8.4846153846153776
 20
 40.873292599864726
 11
 8.4846153846153793
 21
-0.6267074001352739
  0
LINE
  8
5
  6
CONTINUOUS
 62
     4
 10
 25.784615384615446
 20
 40.873292599864726
 11
 25.784615384615449
 21
-0.6267074001475237
  0
LINE
  8
0
  6
CONTINUOUS
 62
     3
 10
 20.134615384615362
 20
-10.626707400135274
 11
 20.134615384615362
 21
 15.373292599864726
  0
LINE
  8
0
  6
CONTINUOUS
 62
     3
 10
 14.134615384615362
 20
-10.626707400135274
 11
 14.134615384615362
 21
 15.373292599864726
  0
LINE
  8
0
  6
CONTINUOUS
 62
     3
 10
 23.134615384615355
 20
 43.873292599864726
 11
 27.784615384615446
 21
 43.873292599864726
  0
LINE
  8
0
  6
CONTINUOUS
 62
     3
 10
 23.134615384615355
 20
 40.873292599864726
 11
 27.784615384615446
 21
 40.873292599864726
  0
LINE
  8
0
  6
CONTINUOUS
 62
     3
 10
 27.784615384615446
 20
 40.873292599864726
 11
 27.784615384615446
 21
 43.873292599864726
  0
LINE
  8
0
  6
CONTINUOUS
 62
     3
 10
 6.4846153846153776
 20
 40.873292599864726
 11
 11.134615384615355
 21
 40.873292599864726
  0
LINE
  8
0
  6
CONTINUOUS
 62
     3
 10
 6.4846153846153776
 20
 40.873292599864726
 11
 6.4846153846153776
 21
 43.873292599864726
  0
LINE
  8
0
  6
CENTER
 62
     7
 10
 30.993454757384281
 20
 73.180020398327372
 11
 42.017170329670179
 21
 73.180020398327372
  0
LINE
  8
0
  6
CENTER
 62
     7
 10
 29.477923861852283
 20
 45.566564801402073
 11
 42.017170329670179
 21
 45.566564801402066
  0
LINE
  8
0
  6
CONTINUOUS
 62
     3
 10
 35.134615384615358
 20
 68.930020398327372
 11
 39.834615384615361
 21
 68.930020398327372
  0
LINE
  8
0
  6
CONTINUOUS
 62
     3
 10
 39.834615384615361
 20
 68.930020398327372
 11
 40.134615384615358
 21
 69.449635640598032
  0
LINE
  8
0
  6
CONTINUOUS
 62
     3
 10
 39.834615384615361
 20
 68.930020398327372
 11
 39.834615384615361
 21
 77.430020398327372
  0
LINE
  8
0
  6
CONTINUOUS
 62
     3
 10
 35.134615384615358
 20
 77.430020398327372
 11
 39.834615384615361
 21
 77.430020398327372
  0
LINE
  8
0
  6
CONTINUOUS
 62
     3
 10
 39.834615384615361
 20
 77.430020398327372
 11
 40.134615384615358
 21
 76.910405156056711
  0
LINE
  8
0
  6
CONTINUOUS
 62
     3
 10
 40.134615384615358
 20
 69.449635640598032
 11
 40.134615384615358
 21
 76.910405156056711
  0
LINE
  8
0
  6
CONTINUOUS
 62
     3
 10
 35.134615384615358
 20
 78.180020398327372
 11
 34.134615384615358
 21
 78.180020398327372
  0
LINE
  8
0
  6
CONTINUOUS
 62
     3
 10
 34.134615384615358
 20
 68.180020398327372
 11
 35.134615384615358
 21
 68.180020398327372
  0
LINE
  8
0
  6
CONTINUOUS
 62
     3
 10
 35.134615384615358
 20
 68.180020398327372
 11
 35.134615384615358
 21
 78.180020398327372
  0
LINE
  8
0
  6
CONTINUOUS
 62
     3
 10
-47.865384615384642
 20
 32.873292599864733
 11
 9.4846153846153776
 21
 32.873292599864733
  0
LINE
  8
0
  6
CONTINUOUS
 62
     3
 10
 24.784615384615346
 20
 32.873292599864733
 11
 34.134615384615358
 21
 32.873292599864733
  0
LINE
  8
0
  6
CONTINUOUS
 62
     3
 10
 35.134615384615358
 20
 40.566564801402073
 11
 35.134615384615358
 21
 50.566564801402073
  0
LINE
  8
0
  6
CONTINUOUS
 62
     3
 10
 35.134615384615358
 20
 40.566564801402073
 11
 34.134615384615358
 21
 40.566564801402073
  0
LINE
  8
0
  6
CONTINUOUS
 62
     3
 10
 35.134615384615358
 20
 50.566564801402073
 11
 34.134615384615358
 21
 50.566564801402073
  0
LINE
  8
0
  6
CONTINUOUS
 62
     3
 10
 35.134615384615358
 20
 41.066564801402073
 11
 36.782354116960406
 21
 41.152919129202928
  0
LINE
  8
0
  6
CONTINUOUS
 62
     3
 10
 35.134615384615358
 20
 50.066564801402073
 11
 36.782354116960406
 21
 49.980210473601218
  0
ARC
  8
0
  6
CONTINUOUS
 62
     3
 10
 36.71750663046609
 20
 42.390282882856397
 40
 1.2390618448487658
 50
-87.000001484060022
 51
-14.35188513769778
  0
ARC
  8
0
  6
CONTINUOUS
 62
     3
 10
 36.71750663046609
 20
 48.74284671994775
 40
 1.2390618448487658
 50
 14.351885137697755
 51
 87.000001484060007
  0
ARC
  8
0
  6
CONTINUOUS
 62
     3
 10
 26.434615384615356
 20
 45.566564801402073
 40
 12
 50
-16.87500028785648
 51
 16.875000287856448
  0
LINE
  8
0
  6
CENTER
 62
     7
 10
 9.4846153846153776
 20
 40.873292599864726
 11
 9.4846153846153758
 21
 25.873292599864726
  0
LINE
  8
0
  6
CENTER
 62
     7
 10
 9.4846153846153758
 20
 25.873292599864726
 11
 8.4846153846153776
 21
 24.873292599864726
  0
LINE
  8
0
  6
CENTER
 62
     7
 10
 24.784615384615346
 20
 40.873292599864726
 11
 24.784615384615346
 21
 25.873292599864726
  0
LINE
  8
0
  6
CENTER
 62
     7
 10
 24.784615384615346
 20
 25.873292599864726
 11
 25.784615384615346
 21
 24.873292599864723
  0
LINE
  8
0
  6
CENTER
 62
     7
 10
 24.78461538461535
 20
 77.873292599864726
 11
 24.784615384615353
 21
 92.873292599864726
  0
LINE
  8
0
  6
CENTER
 62
     7
 10
 24.784615384615353
 20
 92.873292599864726
 11
 25.784615384615353
 21
 93.873292599864726
  0
LINE
  8
0
  6
CENTER
 62
     7
 10
 9.4846153846153811
 20
 77.873292599864726
 11
 9.4846153846153829
 21
 92.873292599864726
  0
LINE
  8
0
  6
CENTER
 62
     7
 10
 9.4846153846153829
 20
 92.873292599864726
 11
 8.4846153846153847
 21
 93.873292599864726
  0
LINE
  8
0
  6
CENTER
 62
     7
 10
-30.865384615384645
 20
 36.873292599864733
 11
-30.865384615384645
 21
 27.191287105359237
  0
LINE
  8
0
  6
CONTINUOUS
 62
     3
 10
-23.865384615384645
 20
 35.873292599864719
 11
-23.865384615384645
 21
 32.873292599864733
  0
LINE
  8
0
  6
CONTINUOUS
 62
     3
 10
-37.865384615384642
 20
 35.873292599864726
 11
-37.865384615384642
 21
 32.873292599864733
  0
TEXT
  8
218
  6
CONTINUOUS
 62
     96
 10
-31.706545383308729
 20
-98.540142836428814
 11
-26.0532120499754
 21
-98.540142836428799
 40
 3.2000000000000006
 41
 0.8
  1
番号
 50
 0.0000000000000495
 72
  5
  0
TEXT
  8
218
  6
CONTINUOUS
 62
     96
 10
-16.384459046320583
 20
-98.540142836428814
 11
-0.5977923796539155
 21
-98.540142836428785
 40
 3.2000000000000006
 41
 0.8
  1
名称
 50
 0.0000000000000495
 72
  5
  0
TEXT
  8
218
  6
CONTINUOUS
 62
     96
 10
 65.497285704442277
 20
-98.540142836428785
 11
 71.150619037775613
 21
-98.540142836428771
 40
 3.2000000000000006
 41
 0.8
  1
数量
 50
 0.0000000000000495
 72
  5
  0
TEXT
  8
218
  6
CONTINUOUS
 62
     96
 10
-31.313785681497446
 20
-47.340000000000209
 11
-26.193785681497449
 21
-47.340000000000209
 40
 3.2000000000000006
 41
 0.8
  1
10
 50
 0.0000000000000495
 72
  5
  0
TEXT
  8
218
  6
CONTINUOUS
 62
     96
 10
-31.313785681497446
 20
-42.220000000000148
 11
-26.193785681497449
 21
-42.220000000000148
 40
 3.2000000000000006
 41
 0.8
  1
11
 50
 0.0000000000000495
 72
  5
  0
TEXT
  8
218
  6
CONTINUOUS
 62
     96
 10
-31.313785681497389
 20
-37.100000000000158
 11
-26.193785681497392
 21
-37.100000000000158
 40
 3.2000000000000006
 41
 0.8
  1
12
 50
 0.0000000000000495
 72
  5
  0
TEXT
  8
218
  6
CONTINUOUS
 62
     96
 10
-31.313785681497446
 20
-31.980000000000167
 11
-26.193785681497449
 21
-31.980000000000167
 40
 3.2000000000000006
 41
 0.8
  1
13
 50
 0.0000000000000495
 72
  5
  0
TEXT
  8
218
  6
CONTINUOUS
 62
     96
 10
-30.033785662424062
 20
-52.459712494070381
 11
-27.473785662424064
 21
-52.459712494070381
 40
 3.2000000000000006
 41
 0.8
  1
9
 50
 0.0000000000000495
 72
  5
  0
TEXT
  8
218
  6
CONTINUOUS
 62
     96
 10
-30.033785662423892
 20
-57.579430601924521
 11
-27.473785662423893
 21
-57.579430601924521
 40
 3.2000000000000006
 41
 0.8
  1
8
 50
 0.0000000000000495
 72
  5
  0
TEXT
  8
218
  6
CONTINUOUS
 62
     96
 10
-30.033785662423892
 20
-62.699141148355508
 11
-27.473785662423893
 21
-62.699141148355508
 40
 3.2000000000000006
 41
 0.8
  1
7
 50
 0.0000000000000495
 72
  5
  0
TEXT
  8
218
  6
CONTINUOUS
 62
     96
 10
-30.033785662424062
 20
-67.81885364242568
 11
-27.473785662424064
 21
-67.818853642425665
 40
 3.2000000000000006
 41
 0.8
  1
6
 50
 0.0000000000000495
 72
  5
  0
TEXT
  8
218
  6
CONTINUOUS
 62
     96
 10
-30.033785662424062
 20
-72.938567969568268
 11
-27.473785662424064
 21
-72.938567969568254
 40
 3.2000000000000006
 41
 0.8
  1
5
 50
 0.0000000000000495
 72
  5
  0
TEXT
  8
218
  6
CONTINUOUS
 62
     96
 10
-30.033785662424062
 20
-78.058280406355024
 11
-27.473785662424064
 21
-78.05828040635501
 40
 3.2000000000000006
 41
 0.8
  1
4
 50
 0.0000000000000495
 72
  5
  0
TEXT
  8
218
  6
CONTINUOUS
 62
     96
 10
-30.033785662423892
 20
-83.177992900425338
 11
-27.473785662423893
 21
-83.177992900425323
 40
 3.2000000000000006
 41
 0.8
  1
3
 50
 0.0000000000000495
 72
  5
  0
TEXT
  8
218
  6
CONTINUOUS
 62
     96
 10
-30.033785662423892
 20
-88.297709117923674
 11
-27.473785662423893
 21
-88.29770911792366
 40
 3.2000000000000006
 41
 0.8
  1
2
 50
 0.0000000000000495
 72
  5
  0
TEXT
  8
218
  6
CONTINUOUS
 62
     96
 10
-30.033785662423892
 20
-93.417423502349592
 11
-27.473785662423893
 21
-93.417423502349578
 40
 3.2000000000000006
 41
 0.8
  1
1
 50
 0.0000000000000495
 72
  5
  0
TEXT
  8
218
  6
CONTINUOUS
 62
     96
 10
-23.437302215845133
 20
-83.177415883642723
 11
-1.6773025064887364
 21
-83.177415883642695
 40
 3.2000000000000006
 41
 0.8
  1
バルブガイド
 50
 0.0000000000000495
 72
  5
  0
TEXT
  8
218
  6
CONTINUOUS
 62
     96
 10
-23.437302215845161
 20
-72.939980924591438
 11
-8.0773022158451599
 21
-72.93998092459141
 40
 3.2000000000000006
 41
 0.8
  1
ボールバルブ
 50
 0.0000000000000495
 72
  5
  0
TEXT
  8
218
  6
CONTINUOUS
 62
     96
 10
-23.437302215845218
 20
-67.823149561870665
 11
-2.957302215845214
 21
-67.823149561870622
 40
 3.2000000000000006
 41
 0.8
  1
リクィッドエンド
 50
 0.0000000000000662
 72
  5
  0
TEXT
  8
218
  6
CONTINUOUS
 62
     96
 10
-23.43730221584536
 20
-52.460557941373828
 11
-8.0773022158453589
 21
-52.460557941373814
 40
 3.2000000000000006
 41
 0.8
  1
グランド押え
 50
 0.0000000000000495
 72
  5
  0
TEXT
  8
218
  6
CONTINUOUS
 62
     96
 10
-23.437302215845019
 20
-78.057695770865493
 11
-8.0773022158450178
 21
-78.057695770865465
 40
 3.2000000000000006
 41
 0.8
  1
バルブシート
 50
 0.0000000000000495
 72
  5
  0
TEXT
  8
218
  6
CONTINUOUS
 62
     96
 10
-23.437302215845133
 20
-88.297141552919854
 11
-5.517302448360013
 21
-88.297141552919825
 40
 3.2000000000000006
 41
 0.8
  1
ガスケット
 50
 0.0000000000000495
 72
  5
  0
TEXT
  8
218
  6
CONTINUOUS
 62
     96
 10
 14.211164763060458
 20
-88.300715127321737
 11
 24.451164763060461
 21
-88.300715127321723
 40
 3.2000000000000006
 41
 0.8
  1
テフロン
 50
 0.0000000000000495
 72
  5
  0
TEXT
  8
218
  6
CONTINUOUS
 62
     96
 10
-23.437302215845445
 20
-42.220281777578585
 11
-8.0773022158454442
 21
-42.22028177757857
 40
 3.2000000000000006
 41
 0.8
  1
プランジャー
 50
 0.0000000000000495
 72
  5
  0
TEXT
  8
218
  6
CONTINUOUS
 62
     96
 10
-23.437302215845332
 20
-31.980258749608172
 11
-15.757302215845332
 21
-31.980258749608165
 40
 3.2000000000000006
 41
 0.8
  1
丸ビス
 50
 0.0000000000000495
 72
  5
  0
TEXT
  8
220
  6
CONTINUOUS
 62
     96
 10
-23.437302260804067
 20
-36.985710562285917
 11
-6.7973022608040665
 21
-36.985710562285924
 40
 2.9714285714285715
 41
 0.8
  1
キャップボルト
 50
 0
 72
  5
  0
TEXT
  8
218
  6
CONTINUOUS
 62
     96
 10
-23.437302215845218
 20
-93.419998052360782
 11
-8.0773022158452168
 21
-93.419998052360754
 40
 3.2000000000000006
 41
 0.8
  1
出入口ノズル
 50
 0.0000000000000495
 72
  5
  0
TEXT
  8
218
  6
CONTINUOUS
 62
     96
 10
 73.390750264045408
 20
-93.419998052360725
 11
 83.630750264045417
 21
-93.419998052360697
 40
 3.2000000000000006
 41
 0.8
  1
Ｒ３／８
 50
 0.0000000000000495
 72
  5
  0
TEXT
  8
218
  6
CONTINUOUS
 62
     96
 10
 11.651164763060457
 20
-93.420429454464212
 11
 27.011164763060457
 21
-93.420429454464198
 40
 3.2000000000000006
 41
 0.8
  1
SUS304
 50
 0.0000000000000495
 72
  5
  0
TEXT
  8
218
  6
CONTINUOUS
 62
     96
 10
-23.437302215845332
 20
-57.580567393152613
 11
-10.637302215845329
 21
-57.580567393152606
 40
 3.2000000000000006
 41
 0.8
  1
アダプター
 50
 0.0000000000000495
 72
  5
  0
TEXT
  8
218
  6
CONTINUOUS
 62
     96
 10
-23.437302215845218
 20
-62.703423778026391
 11
-2.957302215845214
 21
-62.703423778026369
 40
 3.2000000000000006
 41
 0.8
  1
グランドパッキン
 50
 0.0000000000000662
 72
  5
  0
TEXT
  8
218
  6
CONTINUOUS
 62
     96
 10
 65.763952390182425
 20
-88.300281834862474
 11
 70.883952390182429
 21
-88.30028183486246
 40
 3.2000000000000006
 41
 0.8
  1
10
 50
 0.0000000000000495
 72
  5
  0
TEXT
  8
218
  6
CONTINUOUS
 62
     96
 10
 67.043952390182426
 20
-83.180569340792161
 11
 69.603952390182428
 21
-83.180569340792147
 40
 3.2000000000000006
 41
 0.8
  1
4
 50
 0.0000000000000495
 72
  5
  0
TEXT
  8
218
  6
CONTINUOUS
 62
     96
 10
 67.043952390182426
 20
-78.060856904005348
 11
 69.603952390182428
 21
-78.060856904005334
 40
 3.2000000000000006
 41
 0.8
  1
4
 50
 0.0000000000000495
 72
  5
  0
TEXT
  8
218
  6
CONTINUOUS
 62
     96
 10
-23.437302215845332
 20
-47.341138681584034
 11
-13.197302215845331
 21
-47.341138681584027
 40
 3.2000000000000006
 41
 0.8
  1
水切り板
 50
 0.0000000000000495
 72
  5
  0
LINE
  8
218
  6
CONTINUOUS
 62
     7
 10
-32.818120430394735
 20
-63.662003376146998
 11
 94.999999999999972
 21
-63.66200337614692
  0
LINE
  8
218
  6
CONTINUOUS
 62
     7
 10
-32.818120430394735
 20
-68.78171770328953
 11
 94.999999999999972
 21
-68.781717703289502
  0
LINE
  8
218
  6
CONTINUOUS
 62
     7
 10
-32.818120430394735
 20
-73.901430140076286
 11
 94.999999999999972
 21
-73.901430140076116
  0
LINE
  8
218
  6
CONTINUOUS
 62
     7
 10
-32.818120430394735
 20
-79.021142634146571
 11
 94.999999999999972
 21
-79.021142634146457
  0
LINE
  8
218
  6
CONTINUOUS
 62
     7
 10
-32.818120430394735
 20
-84.14085885164485
 11
 94.999999999999972
 21
-84.140858851644708
  0
LINE
  8
218
  6
CONTINUOUS
 62
     7
 10
-32.818120430394735
 20
-89.260573236070883
 11
 94.999999999999972
 21
-89.260573236070769
  0
LINE
  8
218
  6
CONTINUOUS
 62
     7
 10
-32.818120430394735
 20
-27.824008585366016
 11
 94.999999999999972
 21
-27.824008585365988
  0
LINE
  8
218
  6
CONTINUOUS
 62
     7
 10
-32.818120430394735
 20
-32.943722969792134
 11
 94.999999999999972
 21
-32.943722969792105
  0
LINE
  8
218
  6
CONTINUOUS
 62
     7
 10
-32.818120430394735
 20
-38.063437296934637
 11
 94.999999999999972
 21
-38.063437296934495
  0
LINE
  8
218
  6
CONTINUOUS
 62
     7
 10
-32.818120430394735
 20
-43.183149733721393
 11
 94.999999999999972
 21
-43.183149733721393
  0
LINE
  8
218
  6
CONTINUOUS
 62
     7
 10
-32.818120430394735
 20
-48.302862227791763
 11
 94.999999999999972
 21
-48.302862227791564
  0
LINE
  8
218
  6
CONTINUOUS
 62
     7
 10
-32.818120430394735
 20
-53.42258033564579
 11
 94.999999999999972
 21
-53.422580335645648
  0
LINE
  8
218
  6
CONTINUOUS
 62
     7
 10
-32.818120430394735
 20
-58.542290882076735
 11
 94.999999999999972
 21
-58.542290882076635
  0
LINE
  8
218
  6
CONTINUOUS
 62
     7
 10
-32.818120430394735
 20
-94.38028567285761
 11
 94.999999999999972
 21
-94.380285672857497
  0
LINE
  8
218
  6
CONTINUOUS
 62
     7
 10
 94.999999999999972
 20
-99.5
 11
-32.818120430394735
 21
-99.500000000000142
  0
LINE
  8
218
  6
CONTINUOUS
 62
     7
 10
-32.818120430394735
 20
-99.500000000000085
 11
-32.818120430394735
 21
-27.824008585365974
  0
LINE
  8
218
  6
CONTINUOUS
 62
     7
 10
-24.941636964742457
 20
-99.500000000000085
 11
-24.94163696474245
 21
-27.824008585365974
  0
LINE
  8
218
  6
CONTINUOUS
 62
     7
 10
 10.245099862629218
 20
-99.500000000000028
 11
 10.245099862629221
 21
-27.824008585365988
  0
LINE
  8
218
  6
CONTINUOUS
 62
     7
 10
 28.417229663491696
 20
-96.940142836428805
 11
 28.4172296634917
 21
-27.824008585365988
  0
LINE
  8
218
  6
CONTINUOUS
 62
     7
 10
 71.886415515148116
 20
-99.500000000000057
 11
 71.886415515148116
 21
-27.824008585365988
  0
LINE
  8
218
  6
CONTINUOUS
 62
     7
 10
 94.999999999999972
 20
-99.5
 11
 94.999999999999972
 21
-27.824008585365988
  0
TEXT
  8
218
  6
CONTINUOUS
 62
     96
 10
 67.043952390182426
 20
-62.701711974938512
 11
 69.603952390182428
 21
-62.701711974938512
 40
 3.2000000000000006
 41
 0.8
  1
4
 50
 0.0000000000000495
 72
  5
  0
TEXT
  8
218
  6
CONTINUOUS
 62
     96
 10
 67.043952390182426
 20
-67.821430082792574
 11
 69.603952390182428
 21
-67.82143008279256
 40
 3.2000000000000006
 41
 0.8
  1
1
 50
 0.0000000000000495
 72
  5
  0
TEXT
  8
218
  6
CONTINUOUS
 62
     96
 10
 67.043952390182426
 20
-72.94114062922354
 11
 69.603952390182428
 21
-72.941140629223526
 40
 3.2000000000000006
 41
 0.8
  1
4
 50
 0.0000000000000495
 72
  5
  0
TEXT
  8
218
  6
CONTINUOUS
 62
     96
 10
 11.651164763060457
 20
-78.061288248825278
 11
 27.011164763060457
 21
-78.061288248825264
 40
 3.2000000000000006
 41
 0.8
  1
SUS304
 50
 0.0000000000000495
 72
  5
  0
TEXT
  8
218
  6
CONTINUOUS
 62
     96
 10
 11.651164763060457
 20
-72.941575812038579
 11
 27.011164763060457
 21
-72.941575812038565
 40
 3.2000000000000006
 41
 0.8
  1
SUS304
 50
 0.0000000000000495
 72
  5
  0
TEXT
  8
218
  6
CONTINUOUS
 62
     96
 10
 11.651164763060457
 20
-67.821861427612461
 11
 27.011164763060457
 21
-67.821861427612447
 40
 3.2000000000000006
 41
 0.8
  1
SUS304
 50
 0.0000000000000495
 72
  5
  0
TEXT
  8
218
  6
CONTINUOUS
 62
     96
 10
 11.651164763060457
 20
-52.462722169612832
 11
 27.011164763060457
 21
-52.462722169612817
 40
 3.2000000000000006
 41
 0.8
  1
SUS304
 50
 0.0000000000000495
 72
  5
  0
TEXT
  8
218
  6
CONTINUOUS
 62
     96
 10
 15.491164763060457
 20
-47.34300967554254
 11
 23.171164763060457
 21
-47.34300967554254
 40
 3.2000000000000006
 41
 0.8
  1
PVC
 50
 0.0000000000000495
 72
  5
  0
TEXT
  8
218
  6
CONTINUOUS
 62
     96
 10
 11.651164763060457
 20
-42.223297238755833
 11
 27.011164763060457
 21
-42.223297238755819
 40
 3.2000000000000006
 41
 0.8
  1
SUS304
 50
 0.0000000000000495
 72
  5
  0
TEXT
  8
218
  6
CONTINUOUS
 62
     96
 10
 15.331164763060457
 20
-61.072213334526836
 11
 23.331164763060457
 21
-61.072213334526822
 40
 2.5
 41
 0.8
  1
テフロン
 50
 0.0000000000000495
 72
  5
  0
TEXT
  8
218
  6
CONTINUOUS
 62
     96
 10
 14.331164763060459
 20
-63.632069581561986
 11
 24.331164763060457
 21
-63.632069581561971
 40
 2.5
 41
 0.8
  1
アスベスト
 50
 0.0000000000000495
 72
  5
  0
LINE
  8
218
  6
CONTINUOUS
 62
     7
 10
 64.761489265216653
 20
-99.5
 11
 64.761489265216653
 21
-27.824008585365988
  0
TEXT
  8
218
  6
CONTINUOUS
 62
     96
 10
 29.823294563922939
 20
-93.420429454464212
 11
 45.183294563922935
 21
-93.420429454464198
 40
 3.2000000000000006
 41
 0.8
  1
SUS316
 50
 0.0000000000000495
 72
  5
  0
TEXT
  8
218
  6
CONTINUOUS
 62
     96
 10
 29.823294563922939
 20
-78.061286415753003
 11
 45.183294563922935
 21
-78.061286415752988
 40
 3.2000000000000006
 41
 0.8
  1
SUS316
 50
 0.0000000000000495
 72
  5
  0
TEXT
  8
218
  6
CONTINUOUS
 62
     96
 10
 29.823294563922939
 20
-72.941573921682746
 11
 45.183294563922935
 21
-72.941573921682732
 40
 3.2000000000000006
 41
 0.8
  1
SUS316
 50
 0.0000000000000495
 72
  5
  0
TEXT
  8
218
  6
CONTINUOUS
 62
     96
 10
 29.823294563922939
 20
-67.821863375251766
 11
 45.183294563922935
 21
-67.821863375251752
 40
 3.2000000000000006
 41
 0.8
  1
SUS316
 50
 0.0000000000000495
 72
  5
  0
TEXT
  8
218
  6
CONTINUOUS
 62
     96
 10
 29.823294563922939
 20
-52.462718388901251
 11
 45.183294563922935
 21
-52.462718388901237
 40
 3.2000000000000006
 41
 0.8
  1
SUS316
 50
 0.0000000000000495
 72
  5
  0
TEXT
  8
218
  6
CONTINUOUS
 62
     96
 10
 29.823294563922939
 20
-42.223293515327768
 11
 45.183294563922935
 21
-42.223293515327754
 40
 3.2000000000000006
 41
 0.8
  1
SUS316
 50
 0.0000000000000495
 72
  5
  0
TEXT
  8
218
  6
CONTINUOUS
 62
     96
 10
 67.043952390182426
 20
-93.419998052360725
 11
 69.603952390182428
 21
-93.419998052360711
 40
 3.2000000000000006
 41
 0.8
  1
2
 50
 0.0000000000000495
 72
  5
  0
LINE
  8
177
  6
CONTINUOUS
 62
     2
 10
 30.9172296634917
 20
-86.700714210785605
 11
 44.089359464354175
 21
-86.700714210785605
  0
LINE
  8
177
  6
CONTINUOUS
 62
     2
 10
 44.089359464354175
 20
-86.700714210785605
 11
 39.089359464354175
 21
-85.700714210785605
  0
LINE
  8
177
  6
CONTINUOUS
 62
     2
 10
 39.089359464354175
 20
-85.700714210785605
 11
 38.585946984869807
 21
-88.217776608207458
  0
LINE
  8
177
  6
CONTINUOUS
 62
     2
 10
 30.9172296634917
 20
-61.102142403222295
 11
 44.089359464354175
 21
-61.102142403222295
  0
LINE
  8
177
  6
CONTINUOUS
 62
     2
 10
 44.089359464354175
 20
-61.102142403222295
 11
 39.089359464354175
 21
-60.102142403222295
  0
LINE
  8
177
  6
CONTINUOUS
 62
     2
 10
 39.089359464354175
 20
-60.102142403222295
 11
 38.585946984869807
 21
-62.619204800644162
  0
LINE
  8
177
  6
CONTINUOUS
 62
     2
 10
 30.9172296634917
 20
-45.743006925934139
 11
 44.089359464354175
 21
-45.743006925934139
  0
LINE
  8
177
  6
CONTINUOUS
 62
     2
 10
 44.089359464354175
 20
-45.743006925934139
 11
 39.089359464354175
 21
-44.743006925934139
  0
LINE
  8
177
  6
CONTINUOUS
 62
     2
 10
 39.089359464354175
 20
-44.743006925934139
 11
 38.585946984869807
 21
-47.260069323355992
  0
LINE
  8
177
  6
CONTINUOUS
 62
     2
 10
 30.9172296634917
 20
-30.383865834862572
 11
 44.089359464354175
 21
-30.383865834862572
  0
LINE
  8
177
  6
CONTINUOUS
 62
     2
 10
 44.089359464354175
 20
-30.383865834862572
 11
 39.089359464354175
 21
-29.383865834862572
  0
LINE
  8
177
  6
CONTINUOUS
 62
     2
 10
 39.089359464354175
 20
-29.383865834862572
 11
 38.585946984869807
 21
-31.900928232284429
  0
LINE
  8
177
  6
CONTINUOUS
 62
     2
 10
 30.9172296634917
 20
-35.503580162004937
 11
 44.089359464354175
 21
-35.503580162004937
  0
LINE
  8
177
  6
CONTINUOUS
 62
     2
 10
 44.089359464354175
 20
-35.503580162004937
 11
 39.089359464354175
 21
-34.503580162004937
  0
LINE
  8
177
  6
CONTINUOUS
 62
     2
 10
 39.089359464354175
 20
-34.503580162004937
 11
 38.585946984869807
 21
-37.02064255942679
  0
TEXT
  8
218
  6
CONTINUOUS
 62
     96
 10
 80.616541257574042
 20
-98.540142836428771
 11
 86.269874257574045
 21
-98.540142836428757
 40
 3.2000000000000002
 41
 0.8
  1
備考
 50
 0
 72
  5
  0
TEXT
  8
218
  6
CONTINUOUS
 62
     96
 10
 17.33116476306046
 20
-96.910213796375132
 11
 21.331164763060457
 21
-96.910213796375132
 40
 2.5
 41
 0.8
  1
Ｓ４
 50
 0.0000000000000495
 72
  5
  0
TEXT
  8
218
  6
CONTINUOUS
 62
     96
 10
 35.503294563922935
 20
-96.910213796375132
 11
 39.503294563922935
 21
-96.910213796375132
 40
 2.5
 41
 0.8
  1
Ｓ６
 50
 0.0000000000000495
 72
  5
  0
LINE
  8
218
  6
CONTINUOUS
 62
     7
 10
 10.245099862629218
 20
-96.940142836428805
 11
 64.761489265216653
 21
-96.940142836428777
  0
TEXT
  8
218
  6
CONTINUOUS
 62
     96
 10
 67.043952390182426
 20
-57.582003204296178
 11
 69.603952390182428
 21
-57.582003204296178
 40
 3.2000000000000006
 41
 0.8
  1
1
 50
 0.0000000000000495
 72
  5
  0
TEXT
  8
218
  6
CONTINUOUS
 62
     96
 10
 67.043952390182426
 20
-52.462288934437233
 11
 69.603952390182428
 21
-52.462288934437233
 40
 3.2000000000000006
 41
 0.8
  1
1
 50
 0.0000000000000495
 72
  5
  0
TEXT
  8
218
  6
CONTINUOUS
 62
     96
 10
 67.043952390182426
 20
-47.342576440366891
 11
 69.603952390182428
 21
-47.342576440366891
 40
 3.2000000000000006
 41
 0.8
  1
1
 50
 0.0000000000000495
 72
  5
  0
TEXT
  8
218
  6
CONTINUOUS
 62
     96
 10
 67.043952390182426
 20
-42.22286211322433
 11
 69.603952390182428
 21
-42.22286211322433
 40
 3.2000000000000006
 41
 0.8
  1
1
 50
 0.0000000000000495
 72
  5
  0
TEXT
  8
218
  6
CONTINUOUS
 62
     96
 10
 67.043952390182426
 20
-31.983435292011656
 11
 69.603952390182428
 21
-31.983435292011656
 40
 3.2000000000000006
 41
 0.8
  1
2
 50
 0.0000000000000495
 72
  5
  0
TEXT
  8
218
  6
CONTINUOUS
 62
     96
 10
 67.043952390182426
 20
-37.103149619154046
 11
 69.603952390182428
 21
-37.103149619154046
 40
 3.2000000000000006
 41
 0.8
  1
2
 50
 0.0000000000000495
 72
  5
  0
TEXT
  8
218
  6
CONTINUOUS
 62
     96
 10
 35.503294563922935
 20
-99.470071418214388
 11
 39.503294563922935
 21
-99.470071418214388
 40
 2.5
 41
 0.8
  1
材質
 50
 0.0000000000000495
 72
  5
  0
TEXT
  8
218
  6
CONTINUOUS
 62
     96
 10
 53.675424364785414
 20
-96.910213796375132
 11
 57.675424364785407
 21
-96.910213796375132
 40
 2.5
 41
 0.8
  1
Ｔｉ
 50
 0.0000000000000495
 72
  5
  0
TEXT
  8
218
  6
CONTINUOUS
 62
     96
 10
 51.83542436478541
 20
-93.420429454464212
 11
 59.515424364785417
 21
-93.420429454464198
 40
 3.2000000000000006
 41
 0.8
  1
チタン
 50
 0.0000000000000495
 72
  5
  0
TEXT
  8
218
  6
CONTINUOUS
 62
     96
 10
 47.995424364785414
 20
-72.941573921682718
 11
 63.355424364785407
 21
-72.941573921682703
 40
 3.2000000000000006
 41
 0.8
  1
ハステロイＣ
 50
 0.0000000000000495
 72
  5
  0
LINE
  8
177
  6
CONTINUOUS
 62
     2
 10
 49.089359464354175
 20
-86.700714210785605
 11
 62.261489265216653
 21
-86.700714210785605
  0
LINE
  8
177
  6
CONTINUOUS
 62
     2
 10
 62.261489265216653
 20
-86.700714210785605
 11
 57.261489265216653
 21
-85.700714210785605
  0
LINE
  8
177
  6
CONTINUOUS
 62
     2
 10
 57.261489265216653
 20
-85.700714210785605
 11
 56.758076785732285
 21
-88.217776608207458
  0
TEXT
  8
218
  6
CONTINUOUS
 62
     96
 10
 51.83542436478541
 20
-78.061290196464611
 11
 59.515424364785417
 21
-78.061290196464597
 40
 3.2000000000000006
 41
 0.8
  1
チタン
 50
 0.0000000000000495
 72
  5
  0
TEXT
  8
218
  6
CONTINUOUS
 62
     96
 10
 51.83542436478541
 20
-67.821863375251766
 11
 59.515424364785417
 21
-67.821863375251752
 40
 3.2000000000000006
 41
 0.8
  1
チタン
 50
 0.0000000000000495
 72
  5
  0
TEXT
  8
218
  6
CONTINUOUS
 62
     96
 10
 51.83542436478541
 20
-52.462718388901244
 11
 59.515424364785417
 21
-52.462718388901244
 40
 3.2000000000000006
 41
 0.8
  1
チタン
 50
 0.0000000000000495
 72
  5
  0
LINE
  8
177
  6
CONTINUOUS
 62
     2
 10
 49.089359464354175
 20
-61.102142403222288
 11
 62.261489265216653
 21
-61.102142403222288
  0
LINE
  8
177
  6
CONTINUOUS
 62
     2
 10
 62.261489265216653
 20
-61.102142403222288
 11
 57.261489265216653
 21
-60.102142403222288
  0
LINE
  8
177
  6
CONTINUOUS
 62
     2
 10
 57.261489265216653
 20
-60.102142403222288
 11
 56.758076785732285
 21
-62.61920480064412
  0
LINE
  8
177
  6
CONTINUOUS
 62
     2
 10
 49.089359464354175
 20
-45.743006925934139
 11
 62.261489265216653
 21
-45.743006925934139
  0
LINE
  8
177
  6
CONTINUOUS
 62
     2
 10
 62.261489265216653
 20
-45.743006925934139
 11
 57.261489265216653
 21
-44.743006925934139
  0
LINE
  8
177
  6
CONTINUOUS
 62
     2
 10
 57.261489265216653
 20
-44.743006925934139
 11
 56.758076785732285
 21
-47.260069323355992
  0
LINE
  8
177
  6
CONTINUOUS
 62
     2
 10
 49.089359464354175
 20
-30.383865834862561
 11
 62.261489265216653
 21
-30.383865834862561
  0
LINE
  8
177
  6
CONTINUOUS
 62
     2
 10
 62.261489265216653
 20
-30.383865834862561
 11
 57.261489265216653
 21
-29.383865834862561
  0
LINE
  8
177
  6
CONTINUOUS
 62
     2
 10
 57.261489265216653
 20
-29.383865834862561
 11
 56.758076785732285
 21
-31.900928232284414
  0
LINE
  8
177
  6
CONTINUOUS
 62
     2
 10
 49.089359464354175
 20
-35.503580162004937
 11
 62.261489265216653
 21
-35.503580162004937
  0
LINE
  8
177
  6
CONTINUOUS
 62
     2
 10
 62.261489265216653
 20
-35.503580162004937
 11
 57.261489265216653
 21
-34.503580162004937
  0
LINE
  8
177
  6
CONTINUOUS
 62
     2
 10
 57.261489265216653
 20
-34.503580162004937
 11
 56.758076785732285
 21
-37.02064255942679
  0
TEXT
  8
218
  6
CONTINUOUS
 62
     96
 10
 47.995424364785414
 20
-42.223293515327754
 11
 63.355424364785407
 21
-42.22329351532774
 40
 3.2000000000000006
 41
 0.8
  1
ハステロイＣ
 50
 0.0000000000000495
 72
  5
  0
LINE
  8
218
  6
CONTINUOUS
 62
     7
 10
 46.589359464354175
 20
-96.940142836428777
 11
 46.589359464354175
 21
-27.824008585365988
  0
TEXT
  8
218
  6
CONTINUOUS
 62
     96
 10
 11.651164763060457
 20
-83.181004466323529
 11
 27.011164763060457
 21
-83.181004466323515
 40
 3.2000000000000006
 41
 0.8
  1
SUS304
 50
 0.0000000000000495
 72
  5
  0
TEXT
  8
218
  6
CONTINUOUS
 62
     96
 10
 29.823294563922939
 20
-83.181002633251254
 11
 45.183294563922935
 21
-83.181002633251239
 40
 3.2000000000000006
 41
 0.8
  1
SUS316
 50
 0.0000000000000495
 72
  5
  0
TEXT
  8
218
  6
CONTINUOUS
 62
     96
 10
 51.83542436478541
 20
-83.181006413962862
 11
 59.515424364785417
 21
-83.181006413962848
 40
 3.2000000000000006
 41
 0.8
  1
チタン
 50
 0.0000000000000495
 72
  5
  0
TEXT
  8
218
  6
CONTINUOUS
 62
     96
 10
 11.651164763060457
 20
-57.582440277466887
 11
 27.011164763060457
 21
-57.582440277466873
 40
 3.2000000000000006
 41
 0.8
  1
SUS304
 50
 0.0000000000000495
 72
  5
  0
LINE
  8
177
  6
CONTINUOUS
 62
     2
 10
 30.9172296634917
 20
-55.982431856791322
 11
 44.089359464354175
 21
-55.982431856791322
  0
LINE
  8
177
  6
CONTINUOUS
 62
     2
 10
 44.089359464354175
 20
-55.982431856791322
 11
 39.089359464354175
 21
-54.982431856791322
  0
LINE
  8
177
  6
CONTINUOUS
 62
     2
 10
 39.089359464354175
 20
-54.982431856791322
 11
 38.585946984869807
 21
-57.499494254213182
  0
LINE
  8
177
  6
CONTINUOUS
 62
     2
 10
 49.089359464354175
 20
-55.982431856791308
 11
 62.261489265216653
 21
-55.982431856791308
  0
LINE
  8
177
  6
CONTINUOUS
 62
     2
 10
 62.261489265216653
 20
-55.982431856791308
 11
 57.261489265216653
 21
-54.982431856791308
  0
LINE
  8
177
  6
CONTINUOUS
 62
     2
 10
 57.261489265216653
 20
-54.982431856791308
 11
 56.758076785732285
 21
-57.499494254213154
  0
TEXT
  8
218
  6
CONTINUOUS
 62
     96
 10
 11.651164763060457
 20
-37.10358291161338
 11
 27.011164763060457
 21
-37.103582911613366
 40
 3.2000000000000006
 41
 0.8
  1
SUS304
 50
 0.0000000000000495
 72
  5
  0
TEXT
  8
218
  6
CONTINUOUS
 62
     96
 10
 11.651164763060457
 20
-31.983868527187258
 11
 27.011164763060457
 21
-31.983868527187244
 40
 3.2000000000000006
 41
 0.8
  1
SUS304
 50
 0.0000000000000495
 72
  5
  0
INSERT
  8
0
  2
CADWIN-G0
 10
0.0
 20
0.0
  0
INSERT
  8
0
  2
CADWIN-G1
 10
0.0
 20
0.0
  0
INSERT
  8
0
  2
CADWIN-G2
 10
0.0
 20
0.0
  0
INSERT
  8
0
  2
CADWIN-G3
 10
0.0
 20
0.0
  0
INSERT
  8
0
  2
CADWIN-G4
 10
0.0
 20
0.0
  0
INSERT
  8
0
  2
CADWIN-G5
 10
0.0
 20
0.0
  0
INSERT
  8
0
  2
CADWIN-G6
 10
0.0
 20
0.0
  0
INSERT
  8
0
  2
CADWIN-G7
 10
0.0
 20
0.0
  0
INSERT
  8
0
  2
CADWIN-G8
 10
0.0
 20
0.0
  0
INSERT
  8
0
  2
CADWIN-G9
 10
0.0
 20
0.0
  0
INSERT
  8
0
  2
CADWIN-G10
 10
0.0
 20
0.0
  0
INSERT
  8
0
  2
CADWIN-G11
 10
0.0
 20
0.0
  0
INSERT
  8
0
  2
CADWIN-G12
 10
0.0
 20
0.0
  0
LINE
  8
0
  6
CONTINUOUS
 62
     7
 10
 3.1346153846153513
 20
 52.373292599864754
 11
 9.1346153846153548
 21
 46.87329259986474
  0
LINE
  8
0
  6
CONTINUOUS
 62
     7
 10
 9.1346153846153548
 20
 52.373292599864726
 11
 3.1346153846153548
 21
 46.87329259986474
  0
LINE
  8
0
  6
CONTINUOUS
 62
     7
 10
-2.8653846153846452
 20
 52.373292599864754
 11
 3.1346153846153584
 21
 46.87329259986474
  0
LINE
  8
0
  6
CONTINUOUS
 62
     7
 10
 3.1346153846153584
 20
 52.373292599864726
 11
-2.8653846153846416
 21
 46.87329259986474
  0
LINE
  8
0
  6
CONTINUOUS
 62
     7
 10
-8.8653846153846452
 20
 52.373292599864754
 11
-2.8653846153846416
 21
 46.87329259986474
  0
LINE
  8
0
  6
CONTINUOUS
 62
     7
 10
-2.8653846153846416
 20
 52.373292599864726
 11
-8.8653846153846416
 21
 46.87329259986474
  0
LINE
  8
0
  6
CONTINUOUS
 62
     7
 10
-14.865384615384647
 20
 52.373292599864754
 11
-8.8653846153846416
 21
 46.87329259986474
  0
LINE
  8
0
  6
CONTINUOUS
 62
     7
 10
-8.8653846153846416
 20
 52.373292599864726
 11
-14.865384615384643
 21
 46.87329259986474
  0
LINE
  8
0
  6
CONTINUOUS
 62
     7
 10
 3.1346153846153548
 20
 71.873292599864712
 11
 9.1346153846153584
 21
 66.373292599864698
  0
LINE
  8
0
  6
CONTINUOUS
 62
     7
 10
 9.1346153846153584
 20
 71.873292599864683
 11
 3.1346153846153584
 21
 66.373292599864698
  0
LINE
  8
0
  6
CONTINUOUS
 62
     7
 10
-2.8653846153846416
 20
 71.873292599864712
 11
 3.1346153846153619
 21
 66.373292599864698
  0
LINE
  8
0
  6
CONTINUOUS
 62
     7
 10
 3.1346153846153619
 20
 71.873292599864683
 11
-2.8653846153846381
 21
 66.373292599864698
  0
LINE
  8
0
  6
CONTINUOUS
 62
     7
 10
-8.8653846153846256
 20
 71.873292599864726
 11
-2.8653846153846221
 21
 66.373292599864712
  0
LINE
  8
0
  6
CONTINUOUS
 62
     7
 10
-2.8653846153846221
 20
 71.873292599864698
 11
-8.8653846153846221
 21
 66.373292599864712
  0
LINE
  8
0
  6
CONTINUOUS
 62
     7
 10
-14.865384615384647
 20
 71.873292599864726
 11
-8.8653846153846416
 21
 66.373292599864712
  0
LINE
  8
0
  6
CONTINUOUS
 62
     7
 10
-8.8653846153846416
 20
 71.873292599864698
 11
-14.865384615384643
 21
 66.373292599864712
  0
LINE
  8
0
  6
CONTINUOUS
 62
     3
 10
 9.6346093846156009
 20
-10.626707400135274
 11
 8.6346093846156009
 21
-0.6267074001352739
  0
LINE
  8
0
  6
CONTINUOUS
 62
     3
 10
 24.634621384615116
 20
-10.626707400135274
 11
 25.634621384615116
 21
-0.6267074001475237
  0
LINE
  8
0
  6
CONTINUOUS
 62
     7
 10
 9.6346093846156133
 20
 114.37329259986474
 11
 8.4846153846153971
 21
 114.37329259986474
  0
LINE
  8
0
  6
CONTINUOUS
 62
     7
 10
 24.63462138461513
 20
 114.37329259986474
 11
 25.784615384615368
 21
 114.37329259986474
  0
LINE
  8
0
  6
CONTINUOUS
 62
     7
 10
 9.6346093846156169
 20
 129.37329259986473
 11
 9.6346093846156133
 21
 114.37329259986474
  0
LINE
  8
5
  6
CONTINUOUS
 62
     4
 10
 8.4846153846153829
 20
 77.87329259986474
 11
 8.4846153846153936
 21
 119.37329259986473
  0
LINE
  8
0
  6
CONTINUOUS
 62
     3
 10
 9.6346093846156169
 20
 129.37329259986473
 11
 8.6346093846156151
 21
 119.37329259986473
  0
LINE
  8
0
  6
CONTINUOUS
 62
     7
 10
 24.634621384615134
 20
 129.37329259986473
 11
 24.63462138461513
 21
 114.37329259986474
  0
LINE
  8
5
  6
CONTINUOUS
 62
     4
 10
 25.784615384615449
 20
 77.87329259986474
 11
 25.784615384615464
 21
 119.37329259987699
  0
LINE
  8
0
  6
CONTINUOUS
 62
     3
 10
 24.634621384615134
 20
 129.37329259986473
 11
 25.63462138461513
 21
 119.37329259987699
  0
LINE
  8
128
  6
CONTINUOUS
 62
     3
 10
 16.634615384615412
 20
 45.373292599864726
 11
 16.634615384615412
 21
 43.373292599864726
  0
LINE
  8
128
  6
CONTINUOUS
 62
     3
 10
 13.634615384615412
 20
 45.373292599864726
 11
 13.634615384615412
 21
 43.373292599864726
  0
LINE
  8
128
  6
CONTINUOUS
 62
     3
 10
 17.634615384615298
 20
 45.373292599864726
 11
 17.634615384615298
 21
 43.373292599864726
  0
LINE
  8
128
  6
CONTINUOUS
 62
     3
 10
 20.634615384615298
 20
 45.373292599864726
 11
 20.634615384615298
 21
 43.373292599864726
  0
LINE
  8
128
  6
CONTINUOUS
 62
     3
 10
 21.134615384615355
 20
 35.373292599864726
 11
 21.134615384615355
 21
 37.373292599864726
  0
LINE
  8
128
  6
CONTINUOUS
 62
     3
 10
 13.134615384615355
 20
 37.373292599864726
 11
 13.134615384615355
 21
 35.373292599864726
  0
LINE
  8
128
  6
CONTINUOUS
 62
     3
 10
 19.134615384615355
 20
 37.373292599864726
 11
 19.134615384615355
 21
 32.373292599864726
  0
LINE
  8
128
  6
CONTINUOUS
 62
     3
 10
 15.134615384615353
 20
 37.373292599864726
 11
 15.134615384615353
 21
 32.373292599864726
  0
LINE
  8
128
  6
CONTINUOUS
 62
     3
 10
 11.134615384615355
 20
 35.373292599864726
 11
 13.134615384615355
 21
 35.373292599864726
  0
LINE
  8
128
  6
CONTINUOUS
 62
     3
 10
 21.134615384615355
 20
 35.373292599864726
 11
 23.134615384615355
 21
 35.373292599864726
  0
CIRCLE
  8
128
  6
CONTINUOUS
 62
     3
 10
 17.134615384615355
 20
 39.839184933280819
 40
 3.1749999999999998
  0
LINE
  8
0
  6
CONTINUOUS
 62
     3
 10
 13.134615384615358
 20
 31.373292599864723
 11
 15.134615384615353
 21
 32.373292599864726
  0
LINE
  8
0
  6
CONTINUOUS
 62
     3
 10
 19.134615384615355
 20
 32.373292599864726
 11
 21.134615384615362
 21
 31.373292599864723
  0
LINE
  8
128
  6
CENTER
 62
     7
 10
 19.134615384615298
 20
 46.35378738907707
 11
 19.134615384615298
 21
 42.524185433644448
  0
LINE
  8
128
  6
CENTER
 62
     7
 10
 15.134615384615412
 20
 46.35378738907707
 11
 15.134615384615412
 21
 42.524185433644448
  0
LINE
  8
0
  6
CONTINUOUS
 62
     3
 10
 11.134615384615355
 20
 46.373292599864726
 11
 23.134615384615355
 21
 46.373292599864726
  0
LINE
  8
128
  6
CONTINUOUS
 62
     3
 10
 13.634615384615469
 20
 30.373292599864723
 11
 13.634615384615469
 21
 28.373292599864726
  0
LINE
  8
128
  6
CONTINUOUS
 62
     3
 10
 20.634615384615298
 20
 30.373292599864723
 11
 20.634615384615298
 21
 28.373292599864726
  0
LINE
  8
128
  6
CONTINUOUS
 62
     3
 10
 11.134615384615355
 20
 46.373292599864726
 11
 11.134615384615355
 21
 15.373292599864726
  0
LINE
  8
128
  6
CONTINUOUS
 62
     3
 10
 23.134615384615355
 20
 15.373292599864726
 11
 23.134615384615355
 21
 46.373292599864726
  0
LINE
  8
128
  6
CONTINUOUS
 62
     3
 10
 23.134615384615355
 20
 45.373292599864726
 11
 11.134615384615355
 21
 45.373292599864726
  0
LINE
  8
128
  6
CONTINUOUS
 62
     3
 10
 11.134615384615355
 20
 36.373292599864726
 11
 13.134615384615355
 21
 36.373292599864726
  0
LINE
  8
128
  6
CONTINUOUS
 62
     3
 10
 21.134615384615355
 20
 36.373292599864726
 11
 23.134615384615355
 21
 36.373292599864726
  0
LINE
  8
128
  6
CONTINUOUS
 62
     3
 10
 13.134615384615355
 20
 36.373292599864726
 11
 13.134615384615355
 21
 43.373292599864726
  0
LINE
  8
128
  6
CONTINUOUS
 62
     3
 10
 13.134615384615355
 20
 43.373292599864726
 11
 21.134615384615355
 21
 43.373292599864726
  0
LINE
  8
128
  6
CONTINUOUS
 62
     3
 10
 21.134615384615355
 20
 43.373292599864726
 11
 21.134615384615355
 21
 36.373292599864726
  0
LINE
  8
128
  6
CONTINUOUS
 62
     3
 10
 11.134615384615355
 20
 31.373292599864723
 11
 23.134615384615355
 21
 31.373292599864723
  0
LINE
  8
128
  6
CONTINUOUS
 62
     3
 10
 21.134615384615355
 20
 37.373292599864726
 11
 19.134615384615298
 21
 37.373292599864726
  0
LINE
  8
128
  6
CONTINUOUS
 62
     3
 10
 15.134615384615412
 20
 37.373292599864726
 11
 13.134615384615355
 21
 37.373292599864726
  0
LINE
  8
128
  6
CONTINUOUS
 62
     3
 10
 16.634615384615412
 20
 30.373292599864723
 11
 16.634615384615412
 21
 28.373292599864726
  0
LINE
  8
128
  6
CONTINUOUS
 62
     3
 10
 17.634615384615298
 20
 30.373292599864723
 11
 17.634615384615298
 21
 28.373292599864726
  0
LINE
  8
128
  6
CONTINUOUS
 62
     3
 10
 21.134615384615355
 20
 20.373292599864726
 11
 21.134615384615355
 21
 22.373292599864726
  0
LINE
  8
128
  6
CONTINUOUS
 62
     3
 10
 13.134615384615355
 20
 22.373292599864726
 11
 13.134615384615355
 21
 20.373292599864726
  0
LINE
  8
128
  6
CONTINUOUS
 62
     3
 10
 19.134615384615355
 20
 22.373292599864726
 11
 19.134615384615355
 21
 17.373292599864726
  0
LINE
  8
128
  6
CONTINUOUS
 62
     3
 10
 15.134615384615353
 20
 22.373292599864726
 11
 15.134615384615353
 21
 17.373292599864726
  0
LINE
  8
128
  6
CONTINUOUS
 62
     3
 10
 11.134615384615355
 20
 20.373292599864726
 11
 13.134615384615355
 21
 20.373292599864726
  0
LINE
  8
128
  6
CONTINUOUS
 62
     3
 10
 21.134615384615355
 20
 20.373292599864726
 11
 23.134615384615355
 21
 20.373292599864726
  0
CIRCLE
  8
128
  6
CONTINUOUS
 62
     3
 10
 17.134615384615355
 20
 24.839184933280819
 40
 3.1749999999999998
  0
LINE
  8
0
  6
CONTINUOUS
 62
     3
 10
 13.134615384615298
 20
 16.373292599864726
 11
 15.134615384615353
 21
 17.373292599864726
  0
LINE
  8
0
  6
CONTINUOUS
 62
     3
 10
 19.134615384615355
 20
 17.373292599864726
 11
 21.134615384615355
 21
 16.373292599864726
  0
LINE
  8
0
  6
CONTINUOUS
 62
     3
 10
 23.134615384615298
 20
 15.373292599864726
 11
 11.134615384615298
 21
 15.373292599864726
  0
LINE
  8
128
  6
CONTINUOUS
 62
     3
 10
 13.134615384615355
 20
 16.373292599864726
 11
 13.134615384615355
 21
 15.373292599864726
  0
LINE
  8
128
  6
CONTINUOUS
 62
     3
 10
 21.134615384615355
 20
 16.373292599864726
 11
 21.134615384615355
 21
 15.373292599864726
  0
LINE
  8
128
  6
CONTINUOUS
 62
     3
 10
 23.134615384615355
 20
 30.373292599864723
 11
 11.134615384615355
 21
 30.373292599864723
  0
LINE
  8
128
  6
CONTINUOUS
 62
     3
 10
 11.134615384615355
 20
 21.373292599864726
 11
 13.134615384615355
 21
 21.373292599864726
  0
LINE
  8
128
  6
CONTINUOUS
 62
     3
 10
 21.134615384615355
 20
 21.373292599864726
 11
 23.134615384615355
 21
 21.373292599864726
  0
LINE
  8
128
  6
CONTINUOUS
 62
     3
 10
 13.134615384615355
 20
 21.373292599864726
 11
 13.134615384615355
 21
 28.373292599864726
  0
LINE
  8
128
  6
CONTINUOUS
 62
     3
 10
 13.134615384615355
 20
 28.373292599864726
 11
 21.134615384615355
 21
 28.373292599864726
  0
LINE
  8
128
  6
CONTINUOUS
 62
     3
 10
 21.134615384615355
 20
 28.373292599864726
 11
 21.134615384615355
 21
 21.373292599864726
  0
LINE
  8
128
  6
CONTINUOUS
 62
     3
 10
 11.134615384615355
 20
 16.373292599864726
 11
 23.134615384615355
 21
 16.373292599864726
  0
LINE
  8
128
  6
CONTINUOUS
 62
     3
 10
 21.134615384615355
 20
 22.373292599864726
 11
 19.134615384615298
 21
 22.373292599864726
  0
LINE
  8
128
  6
CONTINUOUS
 62
     3
 10
 15.134615384615412
 20
 22.373292599864726
 11
 13.134615384615355
 21
 22.373292599864726
  0
LINE
  8
128
  6
CENTER
 62
     7
 10
 15.134615384615412
 20
 31.35378738907707
 11
 15.134615384615412
 21
 27.524185433644448
  0
LINE
  8
128
  6
CENTER
 62
     7
 10
 19.134615384615298
 20
 31.35378738907707
 11
 19.134615384615298
 21
 27.524185433644448
  0
LINE
  8
0
  6
CONTINUOUS
 62
     3
 10
 21.134615384615358
 20
 45.373292599864726
 11
 21.134615384615358
 21
 46.373292599864726
  0
LINE
  8
0
  6
CONTINUOUS
 62
     3
 10
 13.134615384615357
 20
 45.373292599864726
 11
 13.134615384615357
 21
 46.373292599864726
  0
LINE
  8
0
  6
CONTINUOUS
 62
     3
 10
 21.134615384615358
 20
 31.373292599864723
 11
 21.134615384615358
 21
 30.373292599864723
  0
LINE
  8
0
  6
CONTINUOUS
 62
     3
 10
 13.134615384615358
 20
 31.373292599864723
 11
 13.134615384615358
 21
 30.373292599864723
  0
INSERT
  8
0
  2
CADWIN-G13
 10
0.0
 20
0.0
  0
INSERT
  8
0
  2
CADWIN-G14
 10
0.0
 20
0.0
  0
INSERT
  8
0
  2
CADWIN-G15
 10
0.0
 20
0.0
  0
INSERT
  8
0
  2
CADWIN-G16
 10
0.0
 20
0.0
  0
INSERT
  8
0
  2
CADWIN-G17
 10
0.0
 20
0.0
  0
LINE
  8
128
  6
CONTINUOUS
 62
     3
 10
 16.634615384615412
 20
 102.37329259986473
 11
 16.634615384615412
 21
 100.37329259986473
  0
LINE
  8
128
  6
CONTINUOUS
 62
     3
 10
 13.634615384615412
 20
 102.37329259986473
 11
 13.634615384615412
 21
 100.37329259986473
  0
LINE
  8
128
  6
CONTINUOUS
 62
     3
 10
 17.634615384615298
 20
 102.37329259986473
 11
 17.634615384615298
 21
 100.37329259986473
  0
LINE
  8
128
  6
CONTINUOUS
 62
     3
 10
 20.634615384615298
 20
 102.37329259986473
 11
 20.634615384615298
 21
 100.37329259986473
  0
LINE
  8
128
  6
CONTINUOUS
 62
     3
 10
 21.134615384615355
 20
 92.373292599864726
 11
 21.134615384615355
 21
 94.373292599864726
  0
LINE
  8
128
  6
CONTINUOUS
 62
     3
 10
 13.134615384615355
 20
 94.373292599864726
 11
 13.134615384615355
 21
 92.373292599864726
  0
LINE
  8
128
  6
CONTINUOUS
 62
     3
 10
 19.134615384615355
 20
 94.373292599864726
 11
 19.134615384615355
 21
 89.373292599864726
  0
LINE
  8
128
  6
CONTINUOUS
 62
     3
 10
 15.134615384615353
 20
 94.373292599864726
 11
 15.134615384615353
 21
 89.373292599864726
  0
LINE
  8
128
  6
CONTINUOUS
 62
     3
 10
 11.134615384615355
 20
 92.373292599864726
 11
 13.134615384615355
 21
 92.373292599864726
  0
LINE
  8
128
  6
CONTINUOUS
 62
     3
 10
 21.134615384615355
 20
 92.373292599864726
 11
 23.134615384615355
 21
 92.373292599864726
  0
CIRCLE
  8
128
  6
CONTINUOUS
 62
     3
 10
 17.134615384615355
 20
 96.839184933280819
 40
 3.1749999999999998
  0
LINE
  8
0
  6
CONTINUOUS
 62
     3
 10
 13.134615384615358
 20
 88.373292599864726
 11
 15.134615384615353
 21
 89.373292599864726
  0
LINE
  8
0
  6
CONTINUOUS
 62
     3
 10
 19.134615384615355
 20
 89.373292599864726
 11
 21.134615384615362
 21
 88.373292599864726
  0
LINE
  8
128
  6
CENTER
 62
     7
 10
 19.134615384615298
 20
 103.35378738907707
 11
 19.134615384615298
 21
 99.524185433644448
  0
LINE
  8
128
  6
CENTER
 62
     7
 10
 15.134615384615412
 20
 103.35378738907707
 11
 15.134615384615412
 21
 99.524185433644448
  0
LINE
  8
0
  6
CONTINUOUS
 62
     3
 10
 11.134615384615355
 20
 103.37329259986473
 11
 23.134615384615355
 21
 103.37329259986473
  0
LINE
  8
128
  6
CONTINUOUS
 62
     3
 10
 13.634615384615469
 20
 87.373292599864726
 11
 13.634615384615469
 21
 85.373292599864726
  0
LINE
  8
128
  6
CONTINUOUS
 62
     3
 10
 20.634615384615298
 20
 87.373292599864726
 11
 20.634615384615298
 21
 85.373292599864726
  0
LINE
  8
128
  6
CONTINUOUS
 62
     3
 10
 11.134615384615355
 20
 103.37329259986473
 11
 11.134615384615355
 21
 72.373292599864726
  0
LINE
  8
128
  6
CONTINUOUS
 62
     3
 10
 23.134615384615355
 20
 72.373292599864726
 11
 23.134615384615355
 21
 103.37329259986473
  0
LINE
  8
128
  6
CONTINUOUS
 62
     3
 10
 23.134615384615355
 20
 102.37329259986473
 11
 11.134615384615355
 21
 102.37329259986473
  0
LINE
  8
128
  6
CONTINUOUS
 62
     3
 10
 11.134615384615355
 20
 93.373292599864726
 11
 13.134615384615355
 21
 93.373292599864726
  0
LINE
  8
128
  6
CONTINUOUS
 62
     3
 10
 21.134615384615355
 20
 93.373292599864726
 11
 23.134615384615355
 21
 93.373292599864726
  0
LINE
  8
128
  6
CONTINUOUS
 62
     3
 10
 13.134615384615355
 20
 93.373292599864726
 11
 13.134615384615355
 21
 100.37329259986473
  0
LINE
  8
128
  6
CONTINUOUS
 62
     3
 10
 13.134615384615355
 20
 100.37329259986473
 11
 21.134615384615355
 21
 100.37329259986473
  0
LINE
  8
128
  6
CONTINUOUS
 62
     3
 10
 21.134615384615355
 20
 100.37329259986473
 11
 21.134615384615355
 21
 93.373292599864726
  0
LINE
  8
128
  6
CONTINUOUS
 62
     3
 10
 11.134615384615355
 20
 88.373292599864726
 11
 23.134615384615355
 21
 88.373292599864726
  0
LINE
  8
128
  6
CONTINUOUS
 62
     3
 10
 21.134615384615355
 20
 94.373292599864726
 11
 19.134615384615298
 21
 94.373292599864726
  0
LINE
  8
128
  6
CONTINUOUS
 62
     3
 10
 15.134615384615412
 20
 94.373292599864726
 11
 13.134615384615355
 21
 94.373292599864726
  0
LINE
  8
128
  6
CONTINUOUS
 62
     3
 10
 16.634615384615412
 20
 87.373292599864726
 11
 16.634615384615412
 21
 85.373292599864726
  0
LINE
  8
128
  6
CONTINUOUS
 62
     3
 10
 17.634615384615298
 20
 87.373292599864726
 11
 17.634615384615298
 21
 85.373292599864726
  0
LINE
  8
128
  6
CONTINUOUS
 62
     3
 10
 21.134615384615355
 20
 77.373292599864726
 11
 21.134615384615355
 21
 79.373292599864726
  0
LINE
  8
128
  6
CONTINUOUS
 62
     3
 10
 13.134615384615355
 20
 79.373292599864726
 11
 13.134615384615355
 21
 77.373292599864726
  0
LINE
  8
128
  6
CONTINUOUS
 62
     3
 10
 19.134615384615355
 20
 79.373292599864726
 11
 19.134615384615355
 21
 74.373292599864726
  0
LINE
  8
128
  6
CONTINUOUS
 62
     3
 10
 15.134615384615353
 20
 79.373292599864726
 11
 15.134615384615353
 21
 74.373292599864726
  0
LINE
  8
128
  6
CONTINUOUS
 62
     3
 10
 11.134615384615355
 20
 77.373292599864726
 11
 13.134615384615355
 21
 77.373292599864726
  0
LINE
  8
128
  6
CONTINUOUS
 62
     3
 10
 21.134615384615355
 20
 77.373292599864726
 11
 23.134615384615355
 21
 77.373292599864726
  0
CIRCLE
  8
128
  6
CONTINUOUS
 62
     3
 10
 17.134615384615355
 20
 81.839184933280819
 40
 3.1749999999999998
  0
LINE
  8
0
  6
CONTINUOUS
 62
     3
 10
 13.134615384615298
 20
 73.373292599864726
 11
 15.134615384615353
 21
 74.373292599864726
  0
LINE
  8
0
  6
CONTINUOUS
 62
     3
 10
 19.134615384615355
 20
 74.373292599864726
 11
 21.134615384615355
 21
 73.373292599864726
  0
LINE
  8
0
  6
CONTINUOUS
 62
     3
 10
 23.134615384615298
 20
 72.373292599864726
 11
 11.134615384615298
 21
 72.373292599864726
  0
LINE
  8
128
  6
CONTINUOUS
 62
     3
 10
 13.134615384615355
 20
 73.373292599864726
 11
 13.134615384615355
 21
 72.373292599864726
  0
LINE
  8
128
  6
CONTINUOUS
 62
     3
 10
 21.134615384615355
 20
 73.373292599864726
 11
 21.134615384615355
 21
 72.373292599864726
  0
LINE
  8
128
  6
CONTINUOUS
 62
     3
 10
 23.134615384615355
 20
 87.373292599864726
 11
 11.134615384615355
 21
 87.373292599864726
  0
LINE
  8
128
  6
CONTINUOUS
 62
     3
 10
 11.134615384615355
 20
 78.373292599864726
 11
 13.134615384615355
 21
 78.373292599864726
  0
LINE
  8
128
  6
CONTINUOUS
 62
     3
 10
 21.134615384615355
 20
 78.373292599864726
 11
 23.134615384615355
 21
 78.373292599864726
  0
LINE
  8
128
  6
CONTINUOUS
 62
     3
 10
 13.134615384615355
 20
 78.373292599864726
 11
 13.134615384615355
 21
 85.373292599864726
  0
LINE
  8
128
  6
CONTINUOUS
 62
     3
 10
 13.134615384615355
 20
 85.373292599864726
 11
 21.134615384615355
 21
 85.373292599864726
  0
LINE
  8
128
  6
CONTINUOUS
 62
     3
 10
 21.134615384615355
 20
 85.373292599864726
 11
 21.134615384615355
 21
 78.373292599864726
  0
LINE
  8
128
  6
CONTINUOUS
 62
     3
 10
 11.134615384615355
 20
 73.373292599864726
 11
 23.134615384615355
 21
 73.373292599864726
  0
LINE
  8
128
  6
CONTINUOUS
 62
     3
 10
 21.134615384615355
 20
 79.373292599864726
 11
 19.134615384615298
 21
 79.373292599864726
  0
LINE
  8
128
  6
CONTINUOUS
 62
     3
 10
 15.134615384615412
 20
 79.373292599864726
 11
 13.134615384615355
 21
 79.373292599864726
  0
LINE
  8
128
  6
CENTER
 62
     7
 10
 15.134615384615412
 20
 88.35378738907707
 11
 15.134615384615412
 21
 84.524185433644448
  0
LINE
  8
128
  6
CENTER
 62
     7
 10
 19.134615384615298
 20
 88.35378738907707
 11
 19.134615384615298
 21
 84.524185433644448
  0
LINE
  8
0
  6
CONTINUOUS
 62
     3
 10
 21.134615384615358
 20
 102.37329259986473
 11
 21.134615384615358
 21
 103.37329259986473
  0
LINE
  8
0
  6
CONTINUOUS
 62
     3
 10
 13.134615384615357
 20
 102.37329259986473
 11
 13.134615384615357
 21
 103.37329259986473
  0
LINE
  8
0
  6
CONTINUOUS
 62
     3
 10
 21.134615384615358
 20
 88.373292599864726
 11
 21.134615384615358
 21
 87.373292599864726
  0
LINE
  8
0
  6
CONTINUOUS
 62
     3
 10
 13.134615384615358
 20
 88.373292599864726
 11
 13.134615384615358
 21
 87.373292599864726
  0
INSERT
  8
0
  2
CADWIN-G18
 10
0.0
 20
0.0
  0
INSERT
  8
0
  2
CADWIN-G19
 10
0.0
 20
0.0
  0
INSERT
  8
0
  2
CADWIN-G20
 10
0.0
 20
0.0
  0
INSERT
  8
0
  2
CADWIN-G21
 10
0.0
 20
0.0
  0
INSERT
  8
0
  2
CADWIN-G22
 10
0.0
 20
0.0
  0
ENDSEC
  0
EOF
