  0
SECTION
  2
HEADER
  9
$INSBASE
 10
0.0
20
0.0
  9
$REGENMODE
 70
     1
  9
$DRAGMODE
 70
     1
  9
$DIMTAD
 70
     1
  9
$EXTMIN
 10
-420.000000
 20
-297.000000
 30
 0.0
  9
$EXTMAX
 10
420.000000
 20
297.000000
 30
 0.0
  9
$LUPREC
 70
    3
  9
$AUPREC
 70
    3
  9
$LTSCALE
 40
26.250000
  0
ENDSEC
  0
SECTION
  2
TABLES
  0
TABLE
  2
LTYPE
 70
     6
  0
LTYPE
  2
CONTINUOUS
 70
    64
  3
8;
 72
    65
 73
     0
 40
0.0
  0
LTYPE
  2
DASHED2
 70
    64
  3
_ _ _ _ _ _ _ _ _ _ _ _ _ _ _ _ _ _ _ _ _ _ 
 72
    65
 73
     2
 40
0.5
 49
0.25
 49
-0.25
  0
LTYPE
  2
DASHED
 70
    64
  3
__ __ __ __ __ __ __ __ __ __ __ __ __ __ __
 72
    65
 73
     2
 40
0.75
 49
0.5
 49
-0.25
  0
LTYPE
  2
DASHEDX2
 70
    64
  3
____  ____  ____  ____  ____  ____  ____  __
 72
    65
 73
     2
 40
1.5
 49
1.0
 49
-0.5
  0
LTYPE
  2
HIDDENX2
 70
    64
  3
____ ____ ____ ____ ____ ____ ____ ____ ____
 72
    65
 73
     2
 40
0.625
 49
0.5
 49
-0.125
  0
LTYPE
  2
CENTER
 70
    64
  3
____ _ ____ _ ____ _ ____ _ ____ _ ____ _ __
 72
    65
 73
     4
 40
2.0
 49
1.25
 49
-0.25
 49
0.25
 49
-0.25
  0
LTYPE
  2
CENTERX2
 70
    64
  3
________  __  ________  __  ________  __  __
 72
    65
 73
     4
 40
4.0
 49
2.5
 49
-0.5
 49
0.5
 49
-0.5
  0
LTYPE
  2
PHANTOM2
 70
    64
  3
___ _ _ ___ _ _ ___ _ _ ___ _ _ ___ _ _ ___ 
 72
    65
 73
     6
 40
1.25
 49
0.625
 49
-0.125
 49
0.125
 49
-0.125
 49
0.125
 49
-0.125
  0
LTYPE
  2
PHANTOM
 70
    64
  3
_____ _ _ _____ _ _ _____ _ _ _____ _ _ ____
 72
    65
 73
     6
 40
2.5
 49
1.25
 49
-0.25
 49
0.25
 49
-0.25
 49
0.25
 49
-0.25
  0
ENDTAB
  0
TABLE
  2
LAYER
 70
   255
  0
LAYER
  2
0
 70
    64
 62
     7
  6
CONTINUOUS
  0
LAYER
  2
1
 70
    64
 62
     7
  6
CONTINUOUS
  0
LAYER
  2
2
 70
    64
 62
     7
  6
CONTINUOUS
  0
LAYER
  2
3
 70
    64
 62
     7
  6
CONTINUOUS
  0
LAYER
  2
4
 70
    64
 62
     7
  6
CONTINUOUS
  0
LAYER
  2
5
 70
    64
 62
     7
  6
CONTINUOUS
  0
LAYER
  2
6
 70
    64
 62
     7
  6
CONTINUOUS
  0
LAYER
  2
7
 70
    64
 62
     7
  6
CONTINUOUS
  0
LAYER
  2
8
 70
    64
 62
     7
  6
CONTINUOUS
  0
LAYER
  2
9
 70
    64
 62
     7
  6
CONTINUOUS
  0
LAYER
  2
10
 70
    64
 62
     7
  6
CONTINUOUS
  0
LAYER
  2
11
 70
    64
 62
     7
  6
CONTINUOUS
  0
LAYER
  2
12
 70
    64
 62
     7
  6
CONTINUOUS
  0
LAYER
  2
13
 70
    64
 62
     7
  6
CONTINUOUS
  0
LAYER
  2
14
 70
    64
 62
     7
  6
CONTINUOUS
  0
LAYER
  2
15
 70
    64
 62
     7
  6
CONTINUOUS
  0
LAYER
  2
16
 70
    64
 62
     7
  6
CONTINUOUS
  0
LAYER
  2
17
 70
    64
 62
     7
  6
CONTINUOUS
  0
LAYER
  2
18
 70
    64
 62
     7
  6
CONTINUOUS
  0
LAYER
  2
19
 70
    64
 62
     7
  6
CONTINUOUS
  0
LAYER
  2
20
 70
    64
 62
     7
  6
CONTINUOUS
  0
LAYER
  2
21
 70
    64
 62
     7
  6
CONTINUOUS
  0
LAYER
  2
22
 70
    64
 62
     7
  6
CONTINUOUS
  0
LAYER
  2
23
 70
    64
 62
     7
  6
CONTINUOUS
  0
LAYER
  2
24
 70
    64
 62
     7
  6
CONTINUOUS
  0
LAYER
  2
25
 70
    64
 62
     7
  6
CONTINUOUS
  0
LAYER
  2
26
 70
    64
 62
     7
  6
CONTINUOUS
  0
LAYER
  2
27
 70
    64
 62
     7
  6
CONTINUOUS
  0
LAYER
  2
28
 70
    64
 62
     7
  6
CONTINUOUS
  0
LAYER
  2
29
 70
    64
 62
     7
  6
CONTINUOUS
  0
LAYER
  2
30
 70
    64
 62
     7
  6
CONTINUOUS
  0
LAYER
  2
31
 70
    64
 62
     7
  6
CONTINUOUS
  0
LAYER
  2
32
 70
    64
 62
     7
  6
CONTINUOUS
  0
LAYER
  2
33
 70
    64
 62
     7
  6
CONTINUOUS
  0
LAYER
  2
34
 70
    64
 62
     7
  6
CONTINUOUS
  0
LAYER
  2
35
 70
    64
 62
     7
  6
CONTINUOUS
  0
LAYER
  2
36
 70
    64
 62
     7
  6
CONTINUOUS
  0
LAYER
  2
37
 70
    64
 62
     7
  6
CONTINUOUS
  0
LAYER
  2
38
 70
    64
 62
     7
  6
CONTINUOUS
  0
LAYER
  2
39
 70
    64
 62
     7
  6
CONTINUOUS
  0
LAYER
  2
40
 70
    64
 62
     7
  6
CONTINUOUS
  0
LAYER
  2
41
 70
    64
 62
     7
  6
CONTINUOUS
  0
LAYER
  2
42
 70
    64
 62
     7
  6
CONTINUOUS
  0
LAYER
  2
43
 70
    64
 62
     7
  6
CONTINUOUS
  0
LAYER
  2
44
 70
    64
 62
     7
  6
CONTINUOUS
  0
LAYER
  2
45
 70
    64
 62
     7
  6
CONTINUOUS
  0
LAYER
  2
46
 70
    64
 62
     7
  6
CONTINUOUS
  0
LAYER
  2
47
 70
    64
 62
     7
  6
CONTINUOUS
  0
LAYER
  2
48
 70
    64
 62
     7
  6
CONTINUOUS
  0
LAYER
  2
49
 70
    64
 62
     7
  6
CONTINUOUS
  0
LAYER
  2
50
 70
    64
 62
     7
  6
CONTINUOUS
  0
LAYER
  2
51
 70
    64
 62
     7
  6
CONTINUOUS
  0
LAYER
  2
52
 70
    64
 62
     7
  6
CONTINUOUS
  0
LAYER
  2
53
 70
    64
 62
     7
  6
CONTINUOUS
  0
LAYER
  2
54
 70
    64
 62
     7
  6
CONTINUOUS
  0
LAYER
  2
55
 70
    64
 62
     7
  6
CONTINUOUS
  0
LAYER
  2
56
 70
    64
 62
     7
  6
CONTINUOUS
  0
LAYER
  2
57
 70
    64
 62
     7
  6
CONTINUOUS
  0
LAYER
  2
58
 70
    64
 62
     7
  6
CONTINUOUS
  0
LAYER
  2
59
 70
    64
 62
     7
  6
CONTINUOUS
  0
LAYER
  2
60
 70
    64
 62
     7
  6
CONTINUOUS
  0
LAYER
  2
61
 70
    64
 62
     7
  6
CONTINUOUS
  0
LAYER
  2
62
 70
    64
 62
     7
  6
CONTINUOUS
  0
LAYER
  2
63
 70
    64
 62
     7
  6
CONTINUOUS
  0
LAYER
  2
64
 70
    64
 62
     7
  6
CONTINUOUS
  0
LAYER
  2
65
 70
    64
 62
     7
  6
CONTINUOUS
  0
LAYER
  2
66
 70
    64
 62
     7
  6
CONTINUOUS
  0
LAYER
  2
67
 70
    64
 62
     7
  6
CONTINUOUS
  0
LAYER
  2
68
 70
    64
 62
     7
  6
CONTINUOUS
  0
LAYER
  2
69
 70
    64
 62
     7
  6
CONTINUOUS
  0
LAYER
  2
70
 70
    64
 62
     7
  6
CONTINUOUS
  0
LAYER
  2
71
 70
    64
 62
     7
  6
CONTINUOUS
  0
LAYER
  2
72
 70
    64
 62
     7
  6
CONTINUOUS
  0
LAYER
  2
73
 70
    64
 62
     7
  6
CONTINUOUS
  0
LAYER
  2
74
 70
    64
 62
     7
  6
CONTINUOUS
  0
LAYER
  2
75
 70
    64
 62
     7
  6
CONTINUOUS
  0
LAYER
  2
76
 70
    64
 62
     7
  6
CONTINUOUS
  0
LAYER
  2
77
 70
    64
 62
     7
  6
CONTINUOUS
  0
LAYER
  2
78
 70
    64
 62
     7
  6
CONTINUOUS
  0
LAYER
  2
79
 70
    64
 62
     7
  6
CONTINUOUS
  0
LAYER
  2
80
 70
    64
 62
     7
  6
CONTINUOUS
  0
LAYER
  2
81
 70
    64
 62
     7
  6
CONTINUOUS
  0
LAYER
  2
82
 70
    64
 62
     7
  6
CONTINUOUS
  0
LAYER
  2
83
 70
    64
 62
     7
  6
CONTINUOUS
  0
LAYER
  2
84
 70
    64
 62
     7
  6
CONTINUOUS
  0
LAYER
  2
85
 70
    64
 62
     7
  6
CONTINUOUS
  0
LAYER
  2
86
 70
    64
 62
     7
  6
CONTINUOUS
  0
LAYER
  2
87
 70
    64
 62
     7
  6
CONTINUOUS
  0
LAYER
  2
88
 70
    64
 62
     7
  6
CONTINUOUS
  0
LAYER
  2
89
 70
    64
 62
     7
  6
CONTINUOUS
  0
LAYER
  2
90
 70
    64
 62
     7
  6
CONTINUOUS
  0
LAYER
  2
91
 70
    64
 62
     7
  6
CONTINUOUS
  0
LAYER
  2
92
 70
    64
 62
     7
  6
CONTINUOUS
  0
LAYER
  2
93
 70
    64
 62
     7
  6
CONTINUOUS
  0
LAYER
  2
94
 70
    64
 62
     7
  6
CONTINUOUS
  0
LAYER
  2
95
 70
    64
 62
     7
  6
CONTINUOUS
  0
LAYER
  2
96
 70
    64
 62
     7
  6
CONTINUOUS
  0
LAYER
  2
97
 70
    64
 62
     7
  6
CONTINUOUS
  0
LAYER
  2
98
 70
    64
 62
     7
  6
CONTINUOUS
  0
LAYER
  2
99
 70
    64
 62
     7
  6
CONTINUOUS
  0
LAYER
  2
100
 70
    64
 62
     7
  6
CONTINUOUS
  0
LAYER
  2
101
 70
    64
 62
     7
  6
CONTINUOUS
  0
LAYER
  2
102
 70
    64
 62
     7
  6
CONTINUOUS
  0
LAYER
  2
103
 70
    64
 62
     7
  6
CONTINUOUS
  0
LAYER
  2
104
 70
    64
 62
     7
  6
CONTINUOUS
  0
LAYER
  2
105
 70
    64
 62
     7
  6
CONTINUOUS
  0
LAYER
  2
106
 70
    64
 62
     7
  6
CONTINUOUS
  0
LAYER
  2
107
 70
    64
 62
     7
  6
CONTINUOUS
  0
LAYER
  2
108
 70
    64
 62
     7
  6
CONTINUOUS
  0
LAYER
  2
109
 70
    64
 62
     7
  6
CONTINUOUS
  0
LAYER
  2
110
 70
    64
 62
     7
  6
CONTINUOUS
  0
LAYER
  2
111
 70
    64
 62
     7
  6
CONTINUOUS
  0
LAYER
  2
112
 70
    64
 62
     7
  6
CONTINUOUS
  0
LAYER
  2
113
 70
    64
 62
     7
  6
CONTINUOUS
  0
LAYER
  2
114
 70
    64
 62
     7
  6
CONTINUOUS
  0
LAYER
  2
115
 70
    64
 62
     7
  6
CONTINUOUS
  0
LAYER
  2
116
 70
    64
 62
     7
  6
CONTINUOUS
  0
LAYER
  2
117
 70
    64
 62
     7
  6
CONTINUOUS
  0
LAYER
  2
118
 70
    64
 62
     7
  6
CONTINUOUS
  0
LAYER
  2
119
 70
    64
 62
     7
  6
CONTINUOUS
  0
LAYER
  2
120
 70
    64
 62
     7
  6
CONTINUOUS
  0
LAYER
  2
121
 70
    64
 62
     7
  6
CONTINUOUS
  0
LAYER
  2
122
 70
    64
 62
     7
  6
CONTINUOUS
  0
LAYER
  2
123
 70
    64
 62
     7
  6
CONTINUOUS
  0
LAYER
  2
124
 70
    64
 62
     7
  6
CONTINUOUS
  0
LAYER
  2
125
 70
    64
 62
     7
  6
CONTINUOUS
  0
LAYER
  2
126
 70
    64
 62
     7
  6
CONTINUOUS
  0
LAYER
  2
127
 70
    64
 62
     7
  6
CONTINUOUS
  0
LAYER
  2
128
 70
    64
 62
     7
  6
CONTINUOUS
  0
LAYER
  2
129
 70
    64
 62
     7
  6
CONTINUOUS
  0
LAYER
  2
130
 70
    64
 62
     7
  6
CONTINUOUS
  0
LAYER
  2
131
 70
    64
 62
     7
  6
CONTINUOUS
  0
LAYER
  2
132
 70
    64
 62
     7
  6
CONTINUOUS
  0
LAYER
  2
133
 70
    64
 62
     7
  6
CONTINUOUS
  0
LAYER
  2
134
 70
    64
 62
     7
  6
CONTINUOUS
  0
LAYER
  2
135
 70
    64
 62
     7
  6
CONTINUOUS
  0
LAYER
  2
136
 70
    64
 62
     7
  6
CONTINUOUS
  0
LAYER
  2
137
 70
    64
 62
     7
  6
CONTINUOUS
  0
LAYER
  2
138
 70
    64
 62
     7
  6
CONTINUOUS
  0
LAYER
  2
139
 70
    64
 62
     7
  6
CONTINUOUS
  0
LAYER
  2
140
 70
    64
 62
     7
  6
CONTINUOUS
  0
LAYER
  2
141
 70
    64
 62
     7
  6
CONTINUOUS
  0
LAYER
  2
142
 70
    64
 62
     7
  6
CONTINUOUS
  0
LAYER
  2
143
 70
    64
 62
     7
  6
CONTINUOUS
  0
LAYER
  2
144
 70
    64
 62
     7
  6
CONTINUOUS
  0
LAYER
  2
145
 70
    64
 62
     7
  6
CONTINUOUS
  0
LAYER
  2
146
 70
    64
 62
     7
  6
CONTINUOUS
  0
LAYER
  2
147
 70
    64
 62
     7
  6
CONTINUOUS
  0
LAYER
  2
148
 70
    64
 62
     7
  6
CONTINUOUS
  0
LAYER
  2
149
 70
    64
 62
     7
  6
CONTINUOUS
  0
LAYER
  2
150
 70
    64
 62
     7
  6
CONTINUOUS
  0
LAYER
  2
151
 70
    64
 62
     7
  6
CONTINUOUS
  0
LAYER
  2
152
 70
    64
 62
     7
  6
CONTINUOUS
  0
LAYER
  2
153
 70
    64
 62
     7
  6
CONTINUOUS
  0
LAYER
  2
154
 70
    64
 62
     7
  6
CONTINUOUS
  0
LAYER
  2
155
 70
    64
 62
     7
  6
CONTINUOUS
  0
LAYER
  2
156
 70
    64
 62
     7
  6
CONTINUOUS
  0
LAYER
  2
157
 70
    64
 62
     7
  6
CONTINUOUS
  0
LAYER
  2
158
 70
    64
 62
     7
  6
CONTINUOUS
  0
LAYER
  2
159
 70
    64
 62
     7
  6
CONTINUOUS
  0
LAYER
  2
160
 70
    64
 62
     7
  6
CONTINUOUS
  0
LAYER
  2
161
 70
    64
 62
     7
  6
CONTINUOUS
  0
LAYER
  2
162
 70
    64
 62
     7
  6
CONTINUOUS
  0
LAYER
  2
163
 70
    64
 62
     7
  6
CONTINUOUS
  0
LAYER
  2
164
 70
    64
 62
     7
  6
CONTINUOUS
  0
LAYER
  2
165
 70
    64
 62
     7
  6
CONTINUOUS
  0
LAYER
  2
166
 70
    64
 62
     7
  6
CONTINUOUS
  0
LAYER
  2
167
 70
    64
 62
     7
  6
CONTINUOUS
  0
LAYER
  2
168
 70
    64
 62
     7
  6
CONTINUOUS
  0
LAYER
  2
169
 70
    64
 62
     7
  6
CONTINUOUS
  0
LAYER
  2
170
 70
    64
 62
     7
  6
CONTINUOUS
  0
LAYER
  2
171
 70
    64
 62
     7
  6
CONTINUOUS
  0
LAYER
  2
172
 70
    64
 62
     7
  6
CONTINUOUS
  0
LAYER
  2
173
 70
    64
 62
     7
  6
CONTINUOUS
  0
LAYER
  2
174
 70
    64
 62
     7
  6
CONTINUOUS
  0
LAYER
  2
175
 70
    64
 62
     7
  6
CONTINUOUS
  0
LAYER
  2
176
 70
    64
 62
     7
  6
CONTINUOUS
  0
LAYER
  2
177
 70
    64
 62
     7
  6
CONTINUOUS
  0
LAYER
  2
178
 70
    64
 62
     7
  6
CONTINUOUS
  0
LAYER
  2
179
 70
    64
 62
     7
  6
CONTINUOUS
  0
LAYER
  2
180
 70
    64
 62
     7
  6
CONTINUOUS
  0
LAYER
  2
181
 70
    64
 62
     7
  6
CONTINUOUS
  0
LAYER
  2
182
 70
    64
 62
     7
  6
CONTINUOUS
  0
LAYER
  2
183
 70
    64
 62
     7
  6
CONTINUOUS
  0
LAYER
  2
184
 70
    64
 62
     7
  6
CONTINUOUS
  0
LAYER
  2
185
 70
    64
 62
     7
  6
CONTINUOUS
  0
LAYER
  2
186
 70
    64
 62
     7
  6
CONTINUOUS
  0
LAYER
  2
187
 70
    64
 62
     7
  6
CONTINUOUS
  0
LAYER
  2
188
 70
    64
 62
     7
  6
CONTINUOUS
  0
LAYER
  2
189
 70
    64
 62
     7
  6
CONTINUOUS
  0
LAYER
  2
190
 70
    64
 62
     7
  6
CONTINUOUS
  0
LAYER
  2
191
 70
    64
 62
     7
  6
CONTINUOUS
  0
LAYER
  2
192
 70
    64
 62
     7
  6
CONTINUOUS
  0
LAYER
  2
193
 70
    64
 62
     7
  6
CONTINUOUS
  0
LAYER
  2
194
 70
    64
 62
     7
  6
CONTINUOUS
  0
LAYER
  2
195
 70
    64
 62
     7
  6
CONTINUOUS
  0
LAYER
  2
196
 70
    64
 62
     7
  6
CONTINUOUS
  0
LAYER
  2
197
 70
    64
 62
     7
  6
CONTINUOUS
  0
LAYER
  2
198
 70
    64
 62
     7
  6
CONTINUOUS
  0
LAYER
  2
199
 70
    64
 62
     7
  6
CONTINUOUS
  0
LAYER
  2
200
 70
    64
 62
     7
  6
CONTINUOUS
  0
LAYER
  2
201
 70
    64
 62
     7
  6
CONTINUOUS
  0
LAYER
  2
202
 70
    64
 62
     7
  6
CONTINUOUS
  0
LAYER
  2
203
 70
    64
 62
     7
  6
CONTINUOUS
  0
LAYER
  2
204
 70
    64
 62
     7
  6
CONTINUOUS
  0
LAYER
  2
205
 70
    64
 62
     7
  6
CONTINUOUS
  0
LAYER
  2
206
 70
    64
 62
     7
  6
CONTINUOUS
  0
LAYER
  2
207
 70
    64
 62
     7
  6
CONTINUOUS
  0
LAYER
  2
208
 70
    64
 62
     7
  6
CONTINUOUS
  0
LAYER
  2
209
 70
    64
 62
     7
  6
CONTINUOUS
  0
LAYER
  2
210
 70
    64
 62
     7
  6
CONTINUOUS
  0
LAYER
  2
211
 70
    64
 62
     7
  6
CONTINUOUS
  0
LAYER
  2
212
 70
    64
 62
     7
  6
CONTINUOUS
  0
LAYER
  2
213
 70
    64
 62
     7
  6
CONTINUOUS
  0
LAYER
  2
214
 70
    64
 62
     7
  6
CONTINUOUS
  0
LAYER
  2
215
 70
    64
 62
     7
  6
CONTINUOUS
  0
LAYER
  2
216
 70
    64
 62
     7
  6
CONTINUOUS
  0
LAYER
  2
217
 70
    64
 62
     7
  6
CONTINUOUS
  0
LAYER
  2
218
 70
    64
 62
     7
  6
CONTINUOUS
  0
LAYER
  2
219
 70
    64
 62
     7
  6
CONTINUOUS
  0
LAYER
  2
220
 70
    64
 62
     7
  6
CONTINUOUS
  0
LAYER
  2
221
 70
    64
 62
     7
  6
CONTINUOUS
  0
LAYER
  2
222
 70
    64
 62
     7
  6
CONTINUOUS
  0
LAYER
  2
223
 70
    64
 62
     7
  6
CONTINUOUS
  0
LAYER
  2
224
 70
    64
 62
     7
  6
CONTINUOUS
  0
LAYER
  2
225
 70
    64
 62
     7
  6
CONTINUOUS
  0
LAYER
  2
226
 70
    64
 62
     7
  6
CONTINUOUS
  0
LAYER
  2
227
 70
    64
 62
     7
  6
CONTINUOUS
  0
LAYER
  2
228
 70
    64
 62
     7
  6
CONTINUOUS
  0
LAYER
  2
229
 70
    64
 62
     7
  6
CONTINUOUS
  0
LAYER
  2
230
 70
    64
 62
     7
  6
CONTINUOUS
  0
LAYER
  2
231
 70
    64
 62
     7
  6
CONTINUOUS
  0
LAYER
  2
232
 70
    64
 62
     7
  6
CONTINUOUS
  0
LAYER
  2
233
 70
    64
 62
     7
  6
CONTINUOUS
  0
LAYER
  2
234
 70
    64
 62
     7
  6
CONTINUOUS
  0
LAYER
  2
235
 70
    64
 62
     7
  6
CONTINUOUS
  0
LAYER
  2
236
 70
    64
 62
     7
  6
CONTINUOUS
  0
LAYER
  2
237
 70
    64
 62
     7
  6
CONTINUOUS
  0
LAYER
  2
238
 70
    64
 62
     7
  6
CONTINUOUS
  0
LAYER
  2
239
 70
    64
 62
     7
  6
CONTINUOUS
  0
LAYER
  2
240
 70
    64
 62
     7
  6
CONTINUOUS
  0
LAYER
  2
241
 70
    64
 62
     7
  6
CONTINUOUS
  0
LAYER
  2
242
 70
    64
 62
     7
  6
CONTINUOUS
  0
LAYER
  2
243
 70
    64
 62
     7
  6
CONTINUOUS
  0
LAYER
  2
244
 70
    64
 62
     7
  6
CONTINUOUS
  0
LAYER
  2
245
 70
    64
 62
     7
  6
CONTINUOUS
  0
LAYER
  2
246
 70
    64
 62
     7
  6
CONTINUOUS
  0
LAYER
  2
247
 70
    64
 62
     7
  6
CONTINUOUS
  0
LAYER
  2
248
 70
    64
 62
     7
  6
CONTINUOUS
  0
LAYER
  2
249
 70
    64
 62
     7
  6
CONTINUOUS
  0
LAYER
  2
250
 70
    64
 62
     7
  6
CONTINUOUS
  0
LAYER
  2
251
 70
    64
 62
     7
  6
CONTINUOUS
  0
LAYER
  2
252
 70
    64
 62
     7
  6
CONTINUOUS
  0
LAYER
  2
253
 70
    64
 62
     7
  6
CONTINUOUS
  0
LAYER
  2
254
 70
    64
 62
     7
  6
CONTINUOUS
  0
LAYER
  2
255
 70
    64
 62
     7
  6
CONTINUOUS
  0
ENDTAB
  0
TABLE
  2
STYLE
 70
     2
  0
STYLE
  2
STANDARD
 70
    64
 40
0.0
 41
1.0
 50
0.0
 71
     0
 42
3.000000
  3
TXT
  4
BIGFONT
  0
ENDTAB
  0
ENDSEC
  0
SECTION
  2
BLOCKS
  0
BLOCK
  8
0
  2
CADWIN-G0
 70
    0
 10
0.0
 20
0.0
  0
POINT
  8
0
  6
CONTINUOUS
 62
     2
 10
 322.66949141149428
 20
-241.00001000084691
  0
POINT
  8
0
  6
CONTINUOUS
 62
     2
 10
 159.99996600000046
 20
-239.00001700084655
  0
ENDBLK
  8
0
  0
BLOCK
  8
0
  2
CADWIN-G1
 70
    0
 10
0.0
 20
0.0
  0
LINE
  8
0
  6
CONTINUOUS
 62
     3
 10
-99.88291098196305
 20
-82.794303797468402
 11
-98.882910981963036
 21
-81.794303797468388
  0
LINE
  8
0
  6
CONTINUOUS
 62
     3
 10
-100.16575361807145
 20
-82.794303797468402
 11
-99.165753618071435
 21
-81.794303797468388
  0
LINE
  8
0
  6
CONTINUOUS
 62
     3
 10
-100.44859625417985
 20
-82.794303797468402
 11
-99.448596254179833
 21
-81.794303797468388
  0
LINE
  8
0
  6
CONTINUOUS
 62
     3
 10
-100.73143889028825
 20
-82.794303797468402
 11
-99.731438890288231
 21
-81.794303797468388
  0
LINE
  8
0
  6
CONTINUOUS
 62
     3
 10
-101.01428152639664
 20
-82.794303797468402
 11
-100.01428152639663
 21
-81.794303797468388
  0
LINE
  8
0
  6
CONTINUOUS
 62
     3
 10
-101.29712416250504
 20
-82.794303797468402
 11
-100.29712416250503
 21
-81.794303797468388
  0
LINE
  8
0
  6
CONTINUOUS
 62
     3
 10
-101.57996679861344
 20
-82.794303797468402
 11
-100.57996679861343
 21
-81.794303797468388
  0
LINE
  8
0
  6
CONTINUOUS
 62
     3
 10
-101.86280943472184
 20
-82.794303797468402
 11
-100.86280943472183
 21
-81.794303797468388
  0
LINE
  8
0
  6
CONTINUOUS
 62
     3
 10
-102.14565207083024
 20
-82.794303797468402
 11
-101.14565207083022
 21
-81.794303797468388
  0
LINE
  8
0
  6
CONTINUOUS
 62
     3
 10
-102.42849470693864
 20
-82.794303797468402
 11
-101.42849470693862
 21
-81.794303797468388
  0
LINE
  8
0
  6
CONTINUOUS
 62
     3
 10
-102.71133734304703
 20
-82.794303797468402
 11
-101.71133734304702
 21
-81.794303797468388
  0
LINE
  8
0
  6
CONTINUOUS
 62
     3
 10
-102.99417997915543
 20
-82.794303797468402
 11
-101.99417997915542
 21
-81.794303797468388
  0
LINE
  8
0
  6
CONTINUOUS
 62
     3
 10
-103.27702261526383
 20
-82.794303797468402
 11
-102.27702261526382
 21
-81.794303797468388
  0
LINE
  8
0
  6
CONTINUOUS
 62
     3
 10
-103.55986525137223
 20
-82.794303797468402
 11
-102.55986525137222
 21
-81.794303797468388
  0
LINE
  8
0
  6
CONTINUOUS
 62
     3
 10
-103.84270788748063
 20
-82.794303797468402
 11
-102.84270788748061
 21
-81.794303797468388
  0
LINE
  8
0
  6
CONTINUOUS
 62
     3
 10
-104.12555052358903
 20
-82.794303797468402
 11
-103.12555052358901
 21
-81.794303797468388
  0
LINE
  8
0
  6
CONTINUOUS
 62
     3
 10
-104.40839315969743
 20
-82.794303797468402
 11
-103.40839315969741
 21
-81.794303797468388
  0
LINE
  8
0
  6
CONTINUOUS
 62
     3
 10
-104.69123579580582
 20
-82.794303797468402
 11
-103.69123579580581
 21
-81.794303797468388
  0
LINE
  8
0
  6
CONTINUOUS
 62
     3
 10
-104.97407843191422
 20
-82.794303797468402
 11
-103.97407843191421
 21
-81.794303797468388
  0
LINE
  8
0
  6
CONTINUOUS
 62
     3
 10
-105.25692106802262
 20
-82.794303797468402
 11
-104.25692106802261
 21
-81.794303797468388
  0
LINE
  8
0
  6
CONTINUOUS
 62
     3
 10
-105.38291139240515
 20
-82.637451485742531
 11
-104.539763704131
 21
-81.794303797468388
  0
LINE
  8
0
  6
CONTINUOUS
 62
     3
 10
-105.38291139240515
 20
-82.354608849634133
 11
-104.8226063402394
 21
-81.794303797468388
  0
LINE
  8
0
  6
CONTINUOUS
 62
     3
 10
-105.38291139240515
 20
-82.071766213525734
 11
-105.1054489763478
 21
-81.794303797468388
  0
LINE
  8
0
  6
CONTINUOUS
 62
     3
 10
-99.600068345854652
 20
-82.794303797468402
 11
-98.600068345854638
 21
-81.794303797468388
  0
LINE
  8
0
  6
CONTINUOUS
 62
     3
 10
-99.317225709746253
 20
-82.794303797468402
 11
-98.317225709746239
 21
-81.794303797468388
  0
LINE
  8
0
  6
CONTINUOUS
 62
     3
 10
-99.034383073637855
 20
-82.794303797468402
 11
-98.034383073637841
 21
-81.794303797468388
  0
LINE
  8
0
  6
CONTINUOUS
 62
     3
 10
-98.751540437529457
 20
-82.794303797468402
 11
-97.751540437529442
 21
-81.794303797468388
  0
LINE
  8
0
  6
CONTINUOUS
 62
     3
 10
-98.468697801421058
 20
-82.794303797468402
 11
-97.468697801421044
 21
-81.794303797468388
  0
LINE
  8
0
  6
CONTINUOUS
 62
     3
 10
-98.18585516531266
 20
-82.794303797468402
 11
-97.185855165312645
 21
-81.794303797468388
  0
LINE
  8
0
  6
CONTINUOUS
 62
     3
 10
-97.903012529204261
 20
-82.794303797468402
 11
-96.903012529204247
 21
-81.794303797468388
  0
LINE
  8
0
  6
CONTINUOUS
 62
     3
 10
-97.620169893095863
 20
-82.794303797468402
 11
-96.620169893095849
 21
-81.794303797468388
  0
LINE
  8
0
  6
CONTINUOUS
 62
     3
 10
-97.337327256987464
 20
-82.794303797468402
 11
-96.33732725698745
 21
-81.794303797468388
  0
LINE
  8
0
  6
CONTINUOUS
 62
     3
 10
-97.054484620879066
 20
-82.794303797468402
 11
-96.054484620879052
 21
-81.794303797468388
  0
LINE
  8
0
  6
CONTINUOUS
 62
     3
 10
-96.771641984770667
 20
-82.794303797468402
 11
-95.771641984770639
 21
-81.794303797468388
  0
LINE
  8
0
  6
CONTINUOUS
 62
     3
 10
-96.488799348662269
 20
-82.794303797468402
 11
-95.488799348662241
 21
-81.794303797468388
  0
LINE
  8
0
  6
CONTINUOUS
 62
     3
 10
-96.205956712553871
 20
-82.794303797468402
 11
-95.205956712553842
 21
-81.794303797468388
  0
LINE
  8
0
  6
CONTINUOUS
 62
     3
 10
-95.923114076445472
 20
-82.794303797468416
 11
-94.923114076445444
 21
-81.794303797468388
  0
LINE
  8
0
  6
CONTINUOUS
 62
     3
 10
-95.640271440337074
 20
-82.794303797468416
 11
-94.640271440337045
 21
-81.794303797468388
  0
LINE
  8
0
  6
CONTINUOUS
 62
     3
 10
-95.357428804228675
 20
-82.794303797468416
 11
-94.357428804228647
 21
-81.794303797468388
  0
LINE
  8
0
  6
CONTINUOUS
 62
     3
 10
-95.074586168120277
 20
-82.794303797468416
 11
-94.074586168120248
 21
-81.794303797468388
  0
LINE
  8
0
  6
CONTINUOUS
 62
     3
 10
-94.791743532011878
 20
-82.794303797468416
 11
-93.79174353201185
 21
-81.794303797468388
  0
LINE
  8
0
  6
CONTINUOUS
 62
     3
 10
-94.50890089590348
 20
-82.794303797468416
 11
-93.508900895903452
 21
-81.794303797468388
  0
LINE
  8
0
  6
CONTINUOUS
 62
     3
 10
-94.226058259795082
 20
-82.794303797468416
 11
-93.382911392405163
 21
-81.951156930078483
  0
LINE
  8
0
  6
CONTINUOUS
 62
     3
 10
-93.943215623686683
 20
-82.794303797468416
 11
-93.382911392405163
 21
-82.233999566186881
  0
LINE
  8
0
  6
CONTINUOUS
 62
     3
 10
-93.660372987578285
 20
-82.794303797468416
 11
-93.382911392405163
 21
-82.51684220229528
  0
ENDBLK
  8
0
  0
BLOCK
  8
0
  2
CADWIN-G2
 70
    0
 10
0.0
 20
0.0
  0
LINE
  8
0
  6
CONTINUOUS
 62
     3
 10
-104.88291098196306
 20
-94.794303797468416
 11
-103.88291098196308
 21
-93.79430379746843
  0
LINE
  8
0
  6
CONTINUOUS
 62
     3
 10
-105.16575361807146
 20
-94.794303797468416
 11
-104.16575361807148
 21
-93.79430379746843
  0
LINE
  8
0
  6
CONTINUOUS
 62
     3
 10
-105.38291139240515
 20
-94.728618935693703
 11
-104.44859625417988
 21
-93.79430379746843
  0
LINE
  8
0
  6
CONTINUOUS
 62
     3
 10
-105.38291139240515
 20
-94.445776299585305
 11
-104.73143889028827
 21
-93.79430379746843
  0
LINE
  8
0
  6
CONTINUOUS
 62
     3
 10
-105.38291139240515
 20
-94.162933663476906
 11
-105.01428152639667
 21
-93.79430379746843
  0
LINE
  8
0
  6
CONTINUOUS
 62
     3
 10
-105.38291139240515
 20
-93.880091027368508
 11
-105.29712416250507
 21
-93.79430379746843
  0
LINE
  8
0
  6
CONTINUOUS
 62
     3
 10
-104.60006834585467
 20
-94.794303797468416
 11
-103.60006834585468
 21
-93.79430379746843
  0
LINE
  8
0
  6
CONTINUOUS
 62
     3
 10
-104.31722570974627
 20
-94.794303797468416
 11
-103.38291139240516
 21
-93.859989480127311
  0
LINE
  8
0
  6
CONTINUOUS
 62
     3
 10
-104.03438307363787
 20
-94.794303797468416
 11
-103.38291139240516
 21
-94.142832116235709
  0
LINE
  8
0
  6
CONTINUOUS
 62
     3
 10
-103.75154043752947
 20
-94.794303797468416
 11
-103.38291139240516
 21
-94.425674752344108
  0
LINE
  8
0
  6
CONTINUOUS
 62
     3
 10
-103.46869780142107
 20
-94.794303797468416
 11
-103.38291139240516
 21
-94.708517388452506
  0
ENDBLK
  8
0
  0
BLOCK
  8
0
  2
CADWIN-G3
 70
    0
 10
0.0
 20
0.0
  0
LINE
  8
0
  6
CONTINUOUS
 62
     3
 10
-94.885124460051443
 20
-94.794303797468416
 11
-93.880696853585761
 21
-93.789876191002733
  0
LINE
  8
0
  6
CONTINUOUS
 62
     3
 10
-95.167967096159842
 20
-94.794303797468416
 11
-94.163539489694159
 21
-93.789876191002733
  0
LINE
  8
0
  6
CONTINUOUS
 62
     3
 10
-95.382911392405163
 20
-94.726405457605352
 11
-94.446382125802558
 21
-93.789876191002733
  0
LINE
  8
0
  6
CONTINUOUS
 62
     3
 10
-95.382911392405163
 20
-94.443562821496954
 11
-94.729224761910956
 21
-93.789876191002733
  0
LINE
  8
0
  6
CONTINUOUS
 62
     3
 10
-95.382911392405163
 20
-94.160720185388556
 11
-95.012067398019354
 21
-93.789876191002733
  0
LINE
  8
0
  6
CONTINUOUS
 62
     3
 10
-95.382911392405163
 20
-93.877877549280157
 11
-95.294910034127753
 21
-93.789876191002733
  0
LINE
  8
0
  6
CONTINUOUS
 62
     3
 10
-94.602281823943045
 20
-94.794303797468416
 11
-93.597854217477362
 21
-93.789876191002733
  0
LINE
  8
0
  6
CONTINUOUS
 62
     3
 10
-94.319439187834647
 20
-94.794303797468416
 11
-93.382911392405163
 21
-93.857776002038946
  0
LINE
  8
0
  6
CONTINUOUS
 62
     3
 10
-94.036596551726248
 20
-94.794303797468416
 11
-93.382911392405163
 21
-94.140618638147345
  0
LINE
  8
0
  6
CONTINUOUS
 62
     3
 10
-93.75375391561785
 20
-94.794303797468416
 11
-93.382911392405163
 21
-94.423461274255743
  0
LINE
  8
0
  6
CONTINUOUS
 62
     3
 10
-93.470911279509451
 20
-94.794303797468416
 11
-93.382911392405163
 21
-94.706303910364142
  0
ENDBLK
  8
0
  0
BLOCK
  8
0
  2
CADWIN-G4
 70
    0
 10
0.0
 20
0.0
  0
LINE
  8
0
  6
CONTINUOUS
 62
     3
 10
-99.882910981963065
 20
-98.794303797468416
 11
-98.882910981963065
 21
-97.794303797468416
  0
LINE
  8
0
  6
CONTINUOUS
 62
     3
 10
-100.16575361807146
 20
-98.794303797468416
 11
-99.165753618071463
 21
-97.794303797468416
  0
LINE
  8
0
  6
CONTINUOUS
 62
     3
 10
-100.44859625417986
 20
-98.794303797468416
 11
-99.448596254179861
 21
-97.794303797468416
  0
LINE
  8
0
  6
CONTINUOUS
 62
     3
 10
-100.73143889028826
 20
-98.794303797468416
 11
-99.73143889028826
 21
-97.794303797468416
  0
LINE
  8
0
  6
CONTINUOUS
 62
     3
 10
-101.01428152639666
 20
-98.794303797468416
 11
-100.01428152639666
 21
-97.794303797468416
  0
LINE
  8
0
  6
CONTINUOUS
 62
     3
 10
-101.29712416250506
 20
-98.794303797468416
 11
-100.29712416250506
 21
-97.794303797468416
  0
LINE
  8
0
  6
CONTINUOUS
 62
     3
 10
-101.57996679861346
 20
-98.794303797468416
 11
-100.57996679861346
 21
-97.794303797468416
  0
LINE
  8
0
  6
CONTINUOUS
 62
     3
 10
-101.86280943472185
 20
-98.794303797468416
 11
-100.86280943472185
 21
-97.794303797468416
  0
LINE
  8
0
  6
CONTINUOUS
 62
     3
 10
-102.14565207083025
 20
-98.794303797468416
 11
-101.14565207083025
 21
-97.794303797468416
  0
LINE
  8
0
  6
CONTINUOUS
 62
     3
 10
-102.42849470693865
 20
-98.794303797468416
 11
-101.42849470693865
 21
-97.794303797468416
  0
LINE
  8
0
  6
CONTINUOUS
 62
     3
 10
-102.71133734304705
 20
-98.794303797468416
 11
-101.71133734304705
 21
-97.794303797468416
  0
LINE
  8
0
  6
CONTINUOUS
 62
     3
 10
-102.99417997915545
 20
-98.794303797468416
 11
-101.99417997915545
 21
-97.794303797468416
  0
LINE
  8
0
  6
CONTINUOUS
 62
     3
 10
-103.27702261526385
 20
-98.794303797468416
 11
-102.27702261526385
 21
-97.794303797468416
  0
LINE
  8
0
  6
CONTINUOUS
 62
     3
 10
-103.55986525137224
 20
-98.794303797468416
 11
-102.55986525137224
 21
-97.794303797468416
  0
LINE
  8
0
  6
CONTINUOUS
 62
     3
 10
-103.84270788748064
 20
-98.794303797468416
 11
-102.84270788748064
 21
-97.794303797468416
  0
LINE
  8
0
  6
CONTINUOUS
 62
     3
 10
-104.12555052358904
 20
-98.794303797468416
 11
-103.12555052358904
 21
-97.794303797468416
  0
LINE
  8
0
  6
CONTINUOUS
 62
     3
 10
-104.40839315969744
 20
-98.794303797468416
 11
-103.40839315969744
 21
-97.794303797468416
  0
LINE
  8
0
  6
CONTINUOUS
 62
     3
 10
-104.69123579580584
 20
-98.794303797468416
 11
-103.69123579580584
 21
-97.794303797468416
  0
LINE
  8
0
  6
CONTINUOUS
 62
     3
 10
-104.97407843191424
 20
-98.794303797468416
 11
-103.97407843191424
 21
-97.794303797468416
  0
LINE
  8
0
  6
CONTINUOUS
 62
     3
 10
-105.25692106802263
 20
-98.794303797468416
 11
-104.25692106802263
 21
-97.794303797468416
  0
LINE
  8
0
  6
CONTINUOUS
 62
     3
 10
-105.38291139240515
 20
-98.637451485742531
 11
-104.53976370413103
 21
-97.794303797468416
  0
LINE
  8
0
  6
CONTINUOUS
 62
     3
 10
-105.38291139240515
 20
-98.354608849634133
 11
-104.82260634023943
 21
-97.794303797468416
  0
LINE
  8
0
  6
CONTINUOUS
 62
     3
 10
-105.38291139240515
 20
-98.071766213525734
 11
-105.10544897634783
 21
-97.794303797468416
  0
LINE
  8
0
  6
CONTINUOUS
 62
     3
 10
-99.600068345854666
 20
-98.794303797468416
 11
-98.600068345854666
 21
-97.794303797468416
  0
LINE
  8
0
  6
CONTINUOUS
 62
     3
 10
-99.317225709746268
 20
-98.794303797468416
 11
-98.317225709746268
 21
-97.794303797468416
  0
LINE
  8
0
  6
CONTINUOUS
 62
     3
 10
-99.034383073637869
 20
-98.794303797468416
 11
-98.034383073637869
 21
-97.794303797468416
  0
LINE
  8
0
  6
CONTINUOUS
 62
     3
 10
-98.751540437529471
 20
-98.794303797468416
 11
-97.751540437529471
 21
-97.794303797468416
  0
LINE
  8
0
  6
CONTINUOUS
 62
     3
 10
-98.468697801421072
 20
-98.794303797468416
 11
-97.468697801421072
 21
-97.794303797468416
  0
LINE
  8
0
  6
CONTINUOUS
 62
     3
 10
-98.185855165312674
 20
-98.794303797468416
 11
-97.185855165312674
 21
-97.794303797468416
  0
LINE
  8
0
  6
CONTINUOUS
 62
     3
 10
-97.903012529204275
 20
-98.794303797468416
 11
-96.903012529204275
 21
-97.794303797468416
  0
LINE
  8
0
  6
CONTINUOUS
 62
     3
 10
-97.620169893095877
 20
-98.794303797468416
 11
-96.620169893095877
 21
-97.794303797468416
  0
LINE
  8
0
  6
CONTINUOUS
 62
     3
 10
-97.337327256987479
 20
-98.794303797468416
 11
-96.337327256987479
 21
-97.794303797468416
  0
LINE
  8
0
  6
CONTINUOUS
 62
     3
 10
-97.05448462087908
 20
-98.794303797468416
 11
-96.05448462087908
 21
-97.794303797468416
  0
LINE
  8
0
  6
CONTINUOUS
 62
     3
 10
-96.771641984770682
 20
-98.794303797468416
 11
-95.771641984770667
 21
-97.794303797468416
  0
LINE
  8
0
  6
CONTINUOUS
 62
     3
 10
-96.488799348662283
 20
-98.794303797468416
 11
-95.488799348662269
 21
-97.794303797468416
  0
LINE
  8
0
  6
CONTINUOUS
 62
     3
 10
-96.205956712553885
 20
-98.794303797468416
 11
-95.205956712553871
 21
-97.794303797468416
  0
LINE
  8
0
  6
CONTINUOUS
 62
     3
 10
-95.923114076445486
 20
-98.794303797468416
 11
-94.923114076445472
 21
-97.794303797468416
  0
LINE
  8
0
  6
CONTINUOUS
 62
     3
 10
-95.640271440337088
 20
-98.794303797468416
 11
-94.640271440337074
 21
-97.794303797468416
  0
LINE
  8
0
  6
CONTINUOUS
 62
     3
 10
-95.35742880422869
 20
-98.794303797468416
 11
-94.357428804228675
 21
-97.794303797468416
  0
LINE
  8
0
  6
CONTINUOUS
 62
     3
 10
-95.074586168120291
 20
-98.794303797468416
 11
-94.074586168120277
 21
-97.794303797468416
  0
LINE
  8
0
  6
CONTINUOUS
 62
     3
 10
-94.791743532011893
 20
-98.794303797468416
 11
-93.791743532011878
 21
-97.794303797468416
  0
LINE
  8
0
  6
CONTINUOUS
 62
     3
 10
-94.508900895903494
 20
-98.794303797468416
 11
-93.50890089590348
 21
-97.794303797468416
  0
LINE
  8
0
  6
CONTINUOUS
 62
     3
 10
-94.226058259795096
 20
-98.794303797468416
 11
-93.382911392405163
 21
-97.951156930078497
  0
LINE
  8
0
  6
CONTINUOUS
 62
     3
 10
-93.943215623686697
 20
-98.794303797468416
 11
-93.382911392405163
 21
-98.233999566186895
  0
LINE
  8
0
  6
CONTINUOUS
 62
     3
 10
-93.660372987578299
 20
-98.794303797468416
 11
-93.382911392405163
 21
-98.516842202295294
  0
ENDBLK
  8
0
  0
BLOCK
  8
0
  2
CADWIN-G5
 70
    0
 10
0.0
 20
0.0
  0
LINE
  8
0
  6
CONTINUOUS
 62
     3
 10
-104.88291098196305
 20
-110.7943037974684
 11
-103.88291098196306
 21
-109.79430379746842
  0
LINE
  8
0
  6
CONTINUOUS
 62
     3
 10
-105.16575361807145
 20
-110.7943037974684
 11
-104.16575361807146
 21
-109.79430379746842
  0
LINE
  8
0
  6
CONTINUOUS
 62
     3
 10
-105.38291139240515
 20
-110.7286189356937
 11
-104.44859625417986
 21
-109.79430379746842
  0
LINE
  8
0
  6
CONTINUOUS
 62
     3
 10
-105.38291139240515
 20
-110.4457762995853
 11
-104.73143889028826
 21
-109.79430379746842
  0
LINE
  8
0
  6
CONTINUOUS
 62
     3
 10
-105.38291139240515
 20
-110.16293366347691
 11
-105.01428152639666
 21
-109.79430379746842
  0
LINE
  8
0
  6
CONTINUOUS
 62
     3
 10
-105.38291139240515
 20
-109.88009102736851
 11
-105.29712416250506
 21
-109.79430379746842
  0
LINE
  8
0
  6
CONTINUOUS
 62
     3
 10
-104.60006834585465
 20
-110.7943037974684
 11
-103.60006834585467
 21
-109.79430379746842
  0
LINE
  8
0
  6
CONTINUOUS
 62
     3
 10
-104.31722570974625
 20
-110.7943037974684
 11
-103.38291139240516
 21
-109.85998948012731
  0
LINE
  8
0
  6
CONTINUOUS
 62
     3
 10
-104.03438307363785
 20
-110.7943037974684
 11
-103.38291139240516
 21
-110.14283211623571
  0
LINE
  8
0
  6
CONTINUOUS
 62
     3
 10
-103.75154043752946
 20
-110.7943037974684
 11
-103.38291139240516
 21
-110.42567475234411
  0
LINE
  8
0
  6
CONTINUOUS
 62
     3
 10
-103.46869780142106
 20
-110.7943037974684
 11
-103.38291139240516
 21
-110.70851738845251
  0
ENDBLK
  8
0
  0
BLOCK
  8
0
  2
CADWIN-G6
 70
    0
 10
0.0
 20
0.0
  0
LINE
  8
0
  6
CONTINUOUS
 62
     3
 10
-94.88291098196305
 20
-110.79430379746842
 11
-93.88291098196305
 21
-109.79430379746842
  0
LINE
  8
0
  6
CONTINUOUS
 62
     3
 10
-95.165753618071449
 20
-110.79430379746842
 11
-94.165753618071449
 21
-109.79430379746842
  0
LINE
  8
0
  6
CONTINUOUS
 62
     3
 10
-95.382911392405163
 20
-110.72861893569373
 11
-94.448596254179847
 21
-109.79430379746842
  0
LINE
  8
0
  6
CONTINUOUS
 62
     3
 10
-95.382911392405163
 20
-110.44577629958533
 11
-94.731438890288246
 21
-109.79430379746842
  0
LINE
  8
0
  6
CONTINUOUS
 62
     3
 10
-95.382911392405163
 20
-110.16293366347693
 11
-95.014281526396644
 21
-109.79430379746842
  0
LINE
  8
0
  6
CONTINUOUS
 62
     3
 10
-95.382911392405163
 20
-109.88009102736854
 11
-95.297124162505042
 21
-109.79430379746842
  0
LINE
  8
0
  6
CONTINUOUS
 62
     3
 10
-94.600068345854652
 20
-110.79430379746842
 11
-93.600068345854652
 21
-109.79430379746842
  0
LINE
  8
0
  6
CONTINUOUS
 62
     3
 10
-94.317225709746253
 20
-110.79430379746842
 11
-93.382911392405163
 21
-109.85998948012733
  0
LINE
  8
0
  6
CONTINUOUS
 62
     3
 10
-94.034383073637855
 20
-110.79430379746842
 11
-93.382911392405163
 21
-110.14283211623572
  0
LINE
  8
0
  6
CONTINUOUS
 62
     3
 10
-93.751540437529457
 20
-110.79430379746842
 11
-93.382911392405163
 21
-110.42567475234412
  0
LINE
  8
0
  6
CONTINUOUS
 62
     3
 10
-93.468697801421058
 20
-110.79430379746842
 11
-93.382911392405163
 21
-110.70851738845252
  0
ENDBLK
  8
0
  0
BLOCK
  8
0
  2
CADWIN-G7
 70
    0
 10
0.0
 20
0.0
  0
LINE
  8
0
  6
CONTINUOUS
 62
     3
 10
-99.88291098196305
 20
-114.7943037974684
 11
-98.88291098196305
 21
-113.7943037974684
  0
LINE
  8
0
  6
CONTINUOUS
 62
     3
 10
-100.16575361807145
 20
-114.7943037974684
 11
-99.165753618071449
 21
-113.7943037974684
  0
LINE
  8
0
  6
CONTINUOUS
 62
     3
 10
-100.44859625417985
 20
-114.7943037974684
 11
-99.448596254179847
 21
-113.7943037974684
  0
LINE
  8
0
  6
CONTINUOUS
 62
     3
 10
-100.73143889028825
 20
-114.7943037974684
 11
-99.731438890288246
 21
-113.7943037974684
  0
LINE
  8
0
  6
CONTINUOUS
 62
     3
 10
-101.01428152639664
 20
-114.7943037974684
 11
-100.01428152639664
 21
-113.7943037974684
  0
LINE
  8
0
  6
CONTINUOUS
 62
     3
 10
-101.29712416250504
 20
-114.7943037974684
 11
-100.29712416250504
 21
-113.7943037974684
  0
LINE
  8
0
  6
CONTINUOUS
 62
     3
 10
-101.57996679861344
 20
-114.7943037974684
 11
-100.57996679861344
 21
-113.7943037974684
  0
LINE
  8
0
  6
CONTINUOUS
 62
     3
 10
-101.86280943472184
 20
-114.7943037974684
 11
-100.86280943472184
 21
-113.7943037974684
  0
LINE
  8
0
  6
CONTINUOUS
 62
     3
 10
-102.14565207083024
 20
-114.7943037974684
 11
-101.14565207083024
 21
-113.7943037974684
  0
LINE
  8
0
  6
CONTINUOUS
 62
     3
 10
-102.42849470693864
 20
-114.7943037974684
 11
-101.42849470693864
 21
-113.7943037974684
  0
LINE
  8
0
  6
CONTINUOUS
 62
     3
 10
-102.71133734304703
 20
-114.7943037974684
 11
-101.71133734304703
 21
-113.7943037974684
  0
LINE
  8
0
  6
CONTINUOUS
 62
     3
 10
-102.99417997915543
 20
-114.7943037974684
 11
-101.99417997915543
 21
-113.7943037974684
  0
LINE
  8
0
  6
CONTINUOUS
 62
     3
 10
-103.27702261526383
 20
-114.7943037974684
 11
-102.27702261526383
 21
-113.7943037974684
  0
LINE
  8
0
  6
CONTINUOUS
 62
     3
 10
-103.55986525137223
 20
-114.7943037974684
 11
-102.55986525137223
 21
-113.7943037974684
  0
LINE
  8
0
  6
CONTINUOUS
 62
     3
 10
-103.84270788748063
 20
-114.7943037974684
 11
-102.84270788748063
 21
-113.7943037974684
  0
LINE
  8
0
  6
CONTINUOUS
 62
     3
 10
-104.12555052358903
 20
-114.7943037974684
 11
-103.12555052358903
 21
-113.7943037974684
  0
LINE
  8
0
  6
CONTINUOUS
 62
     3
 10
-104.40839315969743
 20
-114.7943037974684
 11
-103.40839315969743
 21
-113.7943037974684
  0
LINE
  8
0
  6
CONTINUOUS
 62
     3
 10
-104.69123579580582
 20
-114.7943037974684
 11
-103.69123579580582
 21
-113.7943037974684
  0
LINE
  8
0
  6
CONTINUOUS
 62
     3
 10
-104.97407843191422
 20
-114.7943037974684
 11
-103.97407843191422
 21
-113.7943037974684
  0
LINE
  8
0
  6
CONTINUOUS
 62
     3
 10
-105.25692106802262
 20
-114.7943037974684
 11
-104.25692106802262
 21
-113.7943037974684
  0
LINE
  8
0
  6
CONTINUOUS
 62
     3
 10
-105.38291139240516
 20
-114.63745148574255
 11
-104.53976370413102
 21
-113.7943037974684
  0
LINE
  8
0
  6
CONTINUOUS
 62
     3
 10
-105.38291139240516
 20
-114.35460884963415
 11
-104.82260634023942
 21
-113.7943037974684
  0
LINE
  8
0
  6
CONTINUOUS
 62
     3
 10
-105.38291139240516
 20
-114.07176621352575
 11
-105.10544897634782
 21
-113.7943037974684
  0
LINE
  8
0
  6
CONTINUOUS
 62
     3
 10
-99.600068345854652
 20
-114.7943037974684
 11
-98.600068345854652
 21
-113.7943037974684
  0
LINE
  8
0
  6
CONTINUOUS
 62
     3
 10
-99.317225709746253
 20
-114.7943037974684
 11
-98.317225709746253
 21
-113.7943037974684
  0
LINE
  8
0
  6
CONTINUOUS
 62
     3
 10
-99.034383073637855
 20
-114.7943037974684
 11
-98.034383073637855
 21
-113.7943037974684
  0
LINE
  8
0
  6
CONTINUOUS
 62
     3
 10
-98.751540437529457
 20
-114.7943037974684
 11
-97.751540437529457
 21
-113.7943037974684
  0
LINE
  8
0
  6
CONTINUOUS
 62
     3
 10
-98.468697801421058
 20
-114.7943037974684
 11
-97.468697801421058
 21
-113.7943037974684
  0
LINE
  8
0
  6
CONTINUOUS
 62
     3
 10
-98.18585516531266
 20
-114.7943037974684
 11
-97.18585516531266
 21
-113.7943037974684
  0
LINE
  8
0
  6
CONTINUOUS
 62
     3
 10
-97.903012529204261
 20
-114.7943037974684
 11
-96.903012529204261
 21
-113.7943037974684
  0
LINE
  8
0
  6
CONTINUOUS
 62
     3
 10
-97.620169893095863
 20
-114.7943037974684
 11
-96.620169893095863
 21
-113.7943037974684
  0
LINE
  8
0
  6
CONTINUOUS
 62
     3
 10
-97.337327256987464
 20
-114.7943037974684
 11
-96.337327256987464
 21
-113.7943037974684
  0
LINE
  8
0
  6
CONTINUOUS
 62
     3
 10
-97.054484620879066
 20
-114.7943037974684
 11
-96.054484620879066
 21
-113.7943037974684
  0
LINE
  8
0
  6
CONTINUOUS
 62
     3
 10
-96.771641984770667
 20
-114.7943037974684
 11
-95.771641984770667
 21
-113.7943037974684
  0
LINE
  8
0
  6
CONTINUOUS
 62
     3
 10
-96.488799348662269
 20
-114.7943037974684
 11
-95.488799348662269
 21
-113.7943037974684
  0
LINE
  8
0
  6
CONTINUOUS
 62
     3
 10
-96.205956712553871
 20
-114.7943037974684
 11
-95.205956712553871
 21
-113.7943037974684
  0
LINE
  8
0
  6
CONTINUOUS
 62
     3
 10
-95.923114076445472
 20
-114.79430379746842
 11
-94.923114076445472
 21
-113.7943037974684
  0
LINE
  8
0
  6
CONTINUOUS
 62
     3
 10
-95.640271440337074
 20
-114.79430379746842
 11
-94.640271440337074
 21
-113.7943037974684
  0
LINE
  8
0
  6
CONTINUOUS
 62
     3
 10
-95.357428804228675
 20
-114.79430379746842
 11
-94.357428804228675
 21
-113.7943037974684
  0
LINE
  8
0
  6
CONTINUOUS
 62
     3
 10
-95.074586168120277
 20
-114.79430379746842
 11
-94.074586168120277
 21
-113.7943037974684
  0
LINE
  8
0
  6
CONTINUOUS
 62
     3
 10
-94.791743532011878
 20
-114.79430379746842
 11
-93.791743532011878
 21
-113.7943037974684
  0
LINE
  8
0
  6
CONTINUOUS
 62
     3
 10
-94.50890089590348
 20
-114.79430379746842
 11
-93.50890089590348
 21
-113.7943037974684
  0
LINE
  8
0
  6
CONTINUOUS
 62
     3
 10
-94.226058259795082
 20
-114.79430379746842
 11
-93.382911392405163
 21
-113.9511569300785
  0
LINE
  8
0
  6
CONTINUOUS
 62
     3
 10
-93.943215623686683
 20
-114.79430379746842
 11
-93.382911392405163
 21
-114.2339995661869
  0
LINE
  8
0
  6
CONTINUOUS
 62
     3
 10
-93.660372987578285
 20
-114.79430379746842
 11
-93.382911392405163
 21
-114.51684220229529
  0
ENDBLK
  8
0
  0
BLOCK
  8
0
  2
CADWIN-G8
 70
    0
 10
0.0
 20
0.0
  0
LINE
  8
0
  6
CONTINUOUS
 62
     3
 10
 25.114875539948557
 20
-94.794303797468416
 11
 26.119303146414246
 21
-93.789876191002733
  0
LINE
  8
0
  6
CONTINUOUS
 62
     3
 10
 24.832032903840158
 20
-94.794303797468416
 11
 25.836460510305848
 21
-93.789876191002733
  0
LINE
  8
0
  6
CONTINUOUS
 62
     3
 10
 24.617088607594837
 20
-94.726405457605352
 11
 25.55361787419745
 21
-93.789876191002733
  0
LINE
  8
0
  6
CONTINUOUS
 62
     3
 10
 24.617088607594837
 20
-94.443562821496954
 11
 25.270775238089051
 21
-93.789876191002733
  0
LINE
  8
0
  6
CONTINUOUS
 62
     3
 10
 24.617088607594837
 20
-94.160720185388556
 11
 24.987932601980653
 21
-93.789876191002733
  0
LINE
  8
0
  6
CONTINUOUS
 62
     3
 10
 24.617088607594837
 20
-93.877877549280157
 11
 24.705089965872254
 21
-93.789876191002733
  0
LINE
  8
0
  6
CONTINUOUS
 62
     3
 10
 25.397718176056955
 20
-94.794303797468416
 11
 26.402145782522645
 21
-93.789876191002733
  0
LINE
  8
0
  6
CONTINUOUS
 62
     3
 10
 25.680560812165353
 20
-94.794303797468416
 11
 26.617088607594837
 21
-93.857776002038946
  0
LINE
  8
0
  6
CONTINUOUS
 62
     3
 10
 25.963403448273752
 20
-94.794303797468416
 11
 26.617088607594837
 21
-94.140618638147345
  0
LINE
  8
0
  6
CONTINUOUS
 62
     3
 10
 26.24624608438215
 20
-94.794303797468416
 11
 26.617088607594837
 21
-94.423461274255743
  0
LINE
  8
0
  6
CONTINUOUS
 62
     3
 10
 26.529088720490549
 20
-94.794303797468416
 11
 26.617088607594837
 21
-94.706303910364142
  0
ENDBLK
  8
0
  0
BLOCK
  8
0
  2
CADWIN-G9
 70
    0
 10
0.0
 20
0.0
  0
LINE
  8
0
  6
CONTINUOUS
 62
     3
 10
 15.117089018036934
 20
-94.794303797468416
 11
 16.117089018036921
 21
-93.79430379746843
  0
LINE
  8
0
  6
CONTINUOUS
 62
     3
 10
 14.834246381928537
 20
-94.794303797468416
 11
 15.834246381928521
 21
-93.79430379746843
  0
LINE
  8
0
  6
CONTINUOUS
 62
     3
 10
 14.617088607594852
 20
-94.728618935693703
 11
 15.551403745820124
 21
-93.79430379746843
  0
LINE
  8
0
  6
CONTINUOUS
 62
     3
 10
 14.617088607594852
 20
-94.445776299585305
 11
 15.268561109711724
 21
-93.79430379746843
  0
LINE
  8
0
  6
CONTINUOUS
 62
     3
 10
 14.617088607594852
 20
-94.162933663476906
 11
 14.985718473603328
 21
-93.79430379746843
  0
LINE
  8
0
  6
CONTINUOUS
 62
     3
 10
 14.617088607594852
 20
-93.880091027368508
 11
 14.702875837494927
 21
-93.79430379746843
  0
LINE
  8
0
  6
CONTINUOUS
 62
     3
 10
 15.399931654145334
 20
-94.794303797468416
 11
 16.39993165414532
 21
-93.79430379746843
  0
LINE
  8
0
  6
CONTINUOUS
 62
     3
 10
 15.682774290253731
 20
-94.794303797468416
 11
 16.617088607594837
 21
-93.859989480127311
  0
LINE
  8
0
  6
CONTINUOUS
 62
     3
 10
 15.965616926362131
 20
-94.794303797468416
 11
 16.617088607594837
 21
-94.142832116235709
  0
LINE
  8
0
  6
CONTINUOUS
 62
     3
 10
 16.248459562470529
 20
-94.794303797468416
 11
 16.617088607594837
 21
-94.425674752344108
  0
LINE
  8
0
  6
CONTINUOUS
 62
     3
 10
 16.531302198578928
 20
-94.794303797468416
 11
 16.617088607594837
 21
-94.708517388452506
  0
ENDBLK
  8
0
  0
BLOCK
  8
0
  2
CADWIN-G10
 70
    0
 10
0.0
 20
0.0
  0
LINE
  8
0
  6
CONTINUOUS
 62
     3
 10
 20.117089018036935
 20
-98.794303797468416
 11
 21.117089018036935
 21
-97.794303797468416
  0
LINE
  8
0
  6
CONTINUOUS
 62
     3
 10
 19.834246381928537
 20
-98.794303797468416
 11
 20.834246381928537
 21
-97.794303797468416
  0
LINE
  8
0
  6
CONTINUOUS
 62
     3
 10
 19.551403745820139
 20
-98.794303797468416
 11
 20.551403745820139
 21
-97.794303797468416
  0
LINE
  8
0
  6
CONTINUOUS
 62
     3
 10
 19.26856110971174
 20
-98.794303797468416
 11
 20.26856110971174
 21
-97.794303797468416
  0
LINE
  8
0
  6
CONTINUOUS
 62
     3
 10
 18.985718473603342
 20
-98.794303797468416
 11
 19.985718473603342
 21
-97.794303797468416
  0
LINE
  8
0
  6
CONTINUOUS
 62
     3
 10
 18.702875837494943
 20
-98.794303797468416
 11
 19.702875837494943
 21
-97.794303797468416
  0
LINE
  8
0
  6
CONTINUOUS
 62
     3
 10
 18.420033201386545
 20
-98.794303797468416
 11
 19.420033201386545
 21
-97.794303797468416
  0
LINE
  8
0
  6
CONTINUOUS
 62
     3
 10
 18.137190565278146
 20
-98.794303797468416
 11
 19.137190565278146
 21
-97.794303797468416
  0
LINE
  8
0
  6
CONTINUOUS
 62
     3
 10
 17.854347929169748
 20
-98.794303797468416
 11
 18.854347929169748
 21
-97.794303797468416
  0
LINE
  8
0
  6
CONTINUOUS
 62
     3
 10
 17.57150529306135
 20
-98.794303797468416
 11
 18.57150529306135
 21
-97.794303797468416
  0
LINE
  8
0
  6
CONTINUOUS
 62
     3
 10
 17.288662656952951
 20
-98.794303797468416
 11
 18.288662656952951
 21
-97.794303797468416
  0
LINE
  8
0
  6
CONTINUOUS
 62
     3
 10
 17.005820020844553
 20
-98.794303797468416
 11
 18.005820020844553
 21
-97.794303797468416
  0
LINE
  8
0
  6
CONTINUOUS
 62
     3
 10
 16.722977384736154
 20
-98.794303797468416
 11
 17.722977384736154
 21
-97.794303797468416
  0
LINE
  8
0
  6
CONTINUOUS
 62
     3
 10
 16.440134748627756
 20
-98.794303797468416
 11
 17.440134748627756
 21
-97.794303797468416
  0
LINE
  8
0
  6
CONTINUOUS
 62
     3
 10
 16.157292112519357
 20
-98.794303797468416
 11
 17.157292112519357
 21
-97.794303797468416
  0
LINE
  8
0
  6
CONTINUOUS
 62
     3
 10
 15.874449476410961
 20
-98.794303797468416
 11
 16.874449476410959
 21
-97.794303797468416
  0
LINE
  8
0
  6
CONTINUOUS
 62
     3
 10
 15.59160684030256
 20
-98.794303797468416
 11
 16.59160684030256
 21
-97.794303797468416
  0
LINE
  8
0
  6
CONTINUOUS
 62
     3
 10
 15.308764204194164
 20
-98.794303797468416
 11
 16.308764204194162
 21
-97.794303797468416
  0
LINE
  8
0
  6
CONTINUOUS
 62
     3
 10
 15.025921568085764
 20
-98.794303797468416
 11
 16.025921568085764
 21
-97.794303797468416
  0
LINE
  8
0
  6
CONTINUOUS
 62
     3
 10
 14.743078931977367
 20
-98.794303797468416
 11
 15.743078931977367
 21
-97.794303797468416
  0
LINE
  8
0
  6
CONTINUOUS
 62
     3
 10
 14.617088607594852
 20
-98.637451485742531
 11
 15.460236295868967
 21
-97.794303797468416
  0
LINE
  8
0
  6
CONTINUOUS
 62
     3
 10
 14.617088607594852
 20
-98.354608849634133
 11
 15.17739365976057
 21
-97.794303797468416
  0
LINE
  8
0
  6
CONTINUOUS
 62
     3
 10
 14.617088607594852
 20
-98.071766213525734
 11
 14.89455102365217
 21
-97.794303797468416
  0
LINE
  8
0
  6
CONTINUOUS
 62
     3
 10
 20.399931654145334
 20
-98.794303797468416
 11
 21.399931654145334
 21
-97.794303797468416
  0
LINE
  8
0
  6
CONTINUOUS
 62
     3
 10
 20.682774290253732
 20
-98.794303797468416
 11
 21.682774290253732
 21
-97.794303797468416
  0
LINE
  8
0
  6
CONTINUOUS
 62
     3
 10
 20.965616926362131
 20
-98.794303797468416
 11
 21.965616926362131
 21
-97.794303797468416
  0
LINE
  8
0
  6
CONTINUOUS
 62
     3
 10
 21.248459562470529
 20
-98.794303797468416
 11
 22.248459562470529
 21
-97.794303797468416
  0
LINE
  8
0
  6
CONTINUOUS
 62
     3
 10
 21.531302198578928
 20
-98.794303797468416
 11
 22.531302198578928
 21
-97.794303797468416
  0
LINE
  8
0
  6
CONTINUOUS
 62
     3
 10
 21.814144834687326
 20
-98.794303797468416
 11
 22.814144834687326
 21
-97.794303797468416
  0
LINE
  8
0
  6
CONTINUOUS
 62
     3
 10
 22.096987470795725
 20
-98.794303797468416
 11
 23.096987470795725
 21
-97.794303797468416
  0
LINE
  8
0
  6
CONTINUOUS
 62
     3
 10
 22.379830106904123
 20
-98.794303797468416
 11
 23.379830106904123
 21
-97.794303797468416
  0
LINE
  8
0
  6
CONTINUOUS
 62
     3
 10
 22.662672743012521
 20
-98.794303797468416
 11
 23.662672743012521
 21
-97.794303797468416
  0
LINE
  8
0
  6
CONTINUOUS
 62
     3
 10
 22.94551537912092
 20
-98.794303797468416
 11
 23.94551537912092
 21
-97.794303797468416
  0
LINE
  8
0
  6
CONTINUOUS
 62
     3
 10
 23.228358015229318
 20
-98.794303797468416
 11
 24.228358015229325
 21
-97.794303797468416
  0
LINE
  8
0
  6
CONTINUOUS
 62
     3
 10
 23.511200651337717
 20
-98.794303797468416
 11
 24.511200651337724
 21
-97.794303797468416
  0
LINE
  8
0
  6
CONTINUOUS
 62
     3
 10
 23.794043287446115
 20
-98.794303797468416
 11
 24.794043287446122
 21
-97.794303797468416
  0
LINE
  8
0
  6
CONTINUOUS
 62
     3
 10
 24.076885923554514
 20
-98.794303797468416
 11
 25.076885923554521
 21
-97.794303797468416
  0
LINE
  8
0
  6
CONTINUOUS
 62
     3
 10
 24.359728559662912
 20
-98.794303797468416
 11
 25.359728559662919
 21
-97.794303797468416
  0
LINE
  8
0
  6
CONTINUOUS
 62
     3
 10
 24.64257119577131
 20
-98.794303797468416
 11
 25.642571195771318
 21
-97.794303797468416
  0
LINE
  8
0
  6
CONTINUOUS
 62
     3
 10
 24.925413831879709
 20
-98.794303797468416
 11
 25.925413831879716
 21
-97.794303797468416
  0
LINE
  8
0
  6
CONTINUOUS
 62
     3
 10
 25.208256467988107
 20
-98.794303797468416
 11
 26.208256467988114
 21
-97.794303797468416
  0
LINE
  8
0
  6
CONTINUOUS
 62
     3
 10
 25.491099104096506
 20
-98.794303797468416
 11
 26.491099104096513
 21
-97.794303797468416
  0
LINE
  8
0
  6
CONTINUOUS
 62
     3
 10
 25.773941740204904
 20
-98.794303797468416
 11
 26.617088607594837
 21
-97.951156930078497
  0
LINE
  8
0
  6
CONTINUOUS
 62
     3
 10
 26.056784376313303
 20
-98.794303797468416
 11
 26.617088607594837
 21
-98.233999566186895
  0
LINE
  8
0
  6
CONTINUOUS
 62
     3
 10
 26.339627012421701
 20
-98.794303797468416
 11
 26.617088607594837
 21
-98.516842202295294
  0
ENDBLK
  8
0
  0
BLOCK
  8
0
  2
CADWIN-G11
 70
    0
 10
0.0
 20
0.0
  0
LINE
  8
0
  6
CONTINUOUS
 62
     3
 10
 20.11708901803695
 20
-82.794303797468402
 11
 21.117089018036964
 21
-81.794303797468388
  0
LINE
  8
0
  6
CONTINUOUS
 62
     3
 10
 19.834246381928551
 20
-82.794303797468402
 11
 20.834246381928565
 21
-81.794303797468388
  0
LINE
  8
0
  6
CONTINUOUS
 62
     3
 10
 19.551403745820153
 20
-82.794303797468402
 11
 20.551403745820167
 21
-81.794303797468388
  0
LINE
  8
0
  6
CONTINUOUS
 62
     3
 10
 19.268561109711754
 20
-82.794303797468402
 11
 20.268561109711769
 21
-81.794303797468388
  0
LINE
  8
0
  6
CONTINUOUS
 62
     3
 10
 18.985718473603356
 20
-82.794303797468402
 11
 19.98571847360337
 21
-81.794303797468388
  0
LINE
  8
0
  6
CONTINUOUS
 62
     3
 10
 18.702875837494958
 20
-82.794303797468402
 11
 19.702875837494972
 21
-81.794303797468388
  0
LINE
  8
0
  6
CONTINUOUS
 62
     3
 10
 18.420033201386559
 20
-82.794303797468402
 11
 19.420033201386573
 21
-81.794303797468388
  0
LINE
  8
0
  6
CONTINUOUS
 62
     3
 10
 18.137190565278161
 20
-82.794303797468402
 11
 19.137190565278175
 21
-81.794303797468388
  0
LINE
  8
0
  6
CONTINUOUS
 62
     3
 10
 17.854347929169762
 20
-82.794303797468402
 11
 18.854347929169776
 21
-81.794303797468388
  0
LINE
  8
0
  6
CONTINUOUS
 62
     3
 10
 17.571505293061364
 20
-82.794303797468402
 11
 18.571505293061378
 21
-81.794303797468388
  0
LINE
  8
0
  6
CONTINUOUS
 62
     3
 10
 17.288662656952965
 20
-82.794303797468402
 11
 18.28866265695298
 21
-81.794303797468388
  0
LINE
  8
0
  6
CONTINUOUS
 62
     3
 10
 17.005820020844567
 20
-82.794303797468402
 11
 18.005820020844581
 21
-81.794303797468388
  0
LINE
  8
0
  6
CONTINUOUS
 62
     3
 10
 16.722977384736168
 20
-82.794303797468402
 11
 17.722977384736183
 21
-81.794303797468388
  0
LINE
  8
0
  6
CONTINUOUS
 62
     3
 10
 16.44013474862777
 20
-82.794303797468402
 11
 17.440134748627784
 21
-81.794303797468388
  0
LINE
  8
0
  6
CONTINUOUS
 62
     3
 10
 16.157292112519372
 20
-82.794303797468402
 11
 17.157292112519386
 21
-81.794303797468388
  0
LINE
  8
0
  6
CONTINUOUS
 62
     3
 10
 15.874449476410973
 20
-82.794303797468402
 11
 16.874449476410987
 21
-81.794303797468388
  0
LINE
  8
0
  6
CONTINUOUS
 62
     3
 10
 15.591606840302576
 20
-82.794303797468402
 11
 16.591606840302589
 21
-81.794303797468388
  0
LINE
  8
0
  6
CONTINUOUS
 62
     3
 10
 15.308764204194176
 20
-82.794303797468402
 11
 16.30876420419419
 21
-81.794303797468388
  0
LINE
  8
0
  6
CONTINUOUS
 62
     3
 10
 15.02592156808578
 20
-82.794303797468402
 11
 16.025921568085792
 21
-81.794303797468388
  0
LINE
  8
0
  6
CONTINUOUS
 62
     3
 10
 14.743078931977379
 20
-82.794303797468402
 11
 15.743078931977395
 21
-81.794303797468388
  0
LINE
  8
0
  6
CONTINUOUS
 62
     3
 10
 14.617088607594852
 20
-82.637451485742531
 11
 15.460236295868995
 21
-81.794303797468388
  0
LINE
  8
0
  6
CONTINUOUS
 62
     3
 10
 14.617088607594852
 20
-82.354608849634133
 11
 15.177393659760595
 21
-81.794303797468388
  0
LINE
  8
0
  6
CONTINUOUS
 62
     3
 10
 14.617088607594852
 20
-82.071766213525734
 11
 14.894551023652198
 21
-81.794303797468388
  0
LINE
  8
0
  6
CONTINUOUS
 62
     3
 10
 20.399931654145348
 20
-82.794303797468402
 11
 21.399931654145362
 21
-81.794303797468388
  0
LINE
  8
0
  6
CONTINUOUS
 62
     3
 10
 20.682774290253747
 20
-82.794303797468402
 11
 21.682774290253761
 21
-81.794303797468388
  0
LINE
  8
0
  6
CONTINUOUS
 62
     3
 10
 20.965616926362145
 20
-82.794303797468402
 11
 21.965616926362159
 21
-81.794303797468388
  0
LINE
  8
0
  6
CONTINUOUS
 62
     3
 10
 21.248459562470543
 20
-82.794303797468402
 11
 22.248459562470558
 21
-81.794303797468388
  0
LINE
  8
0
  6
CONTINUOUS
 62
     3
 10
 21.531302198578942
 20
-82.794303797468402
 11
 22.531302198578956
 21
-81.794303797468388
  0
LINE
  8
0
  6
CONTINUOUS
 62
     3
 10
 21.81414483468734
 20
-82.794303797468402
 11
 22.814144834687355
 21
-81.794303797468388
  0
LINE
  8
0
  6
CONTINUOUS
 62
     3
 10
 22.096987470795739
 20
-82.794303797468402
 11
 23.096987470795753
 21
-81.794303797468388
  0
LINE
  8
0
  6
CONTINUOUS
 62
     3
 10
 22.379830106904137
 20
-82.794303797468402
 11
 23.379830106904151
 21
-81.794303797468388
  0
LINE
  8
0
  6
CONTINUOUS
 62
     3
 10
 22.662672743012536
 20
-82.794303797468402
 11
 23.66267274301255
 21
-81.794303797468388
  0
LINE
  8
0
  6
CONTINUOUS
 62
     3
 10
 22.945515379120934
 20
-82.794303797468402
 11
 23.945515379120948
 21
-81.794303797468388
  0
LINE
  8
0
  6
CONTINUOUS
 62
     3
 10
 23.228358015229333
 20
-82.794303797468402
 11
 24.228358015229354
 21
-81.794303797468388
  0
LINE
  8
0
  6
CONTINUOUS
 62
     3
 10
 23.511200651337731
 20
-82.794303797468402
 11
 24.511200651337752
 21
-81.794303797468388
  0
LINE
  8
0
  6
CONTINUOUS
 62
     3
 10
 23.794043287446129
 20
-82.794303797468402
 11
 24.794043287446151
 21
-81.794303797468388
  0
LINE
  8
0
  6
CONTINUOUS
 62
     3
 10
 24.076885923554521
 20
-82.794303797468416
 11
 25.076885923554549
 21
-81.794303797468388
  0
LINE
  8
0
  6
CONTINUOUS
 62
     3
 10
 24.359728559662919
 20
-82.794303797468416
 11
 25.359728559662948
 21
-81.794303797468388
  0
LINE
  8
0
  6
CONTINUOUS
 62
     3
 10
 24.642571195771318
 20
-82.794303797468416
 11
 25.642571195771346
 21
-81.794303797468388
  0
LINE
  8
0
  6
CONTINUOUS
 62
     3
 10
 24.925413831879716
 20
-82.794303797468416
 11
 25.925413831879744
 21
-81.794303797468388
  0
LINE
  8
0
  6
CONTINUOUS
 62
     3
 10
 25.208256467988114
 20
-82.794303797468416
 11
 26.208256467988143
 21
-81.794303797468388
  0
LINE
  8
0
  6
CONTINUOUS
 62
     3
 10
 25.491099104096513
 20
-82.794303797468416
 11
 26.491099104096541
 21
-81.794303797468388
  0
LINE
  8
0
  6
CONTINUOUS
 62
     3
 10
 25.773941740204911
 20
-82.794303797468416
 11
 26.617088607594845
 21
-81.951156930078483
  0
LINE
  8
0
  6
CONTINUOUS
 62
     3
 10
 26.05678437631331
 20
-82.794303797468416
 11
 26.617088607594845
 21
-82.233999566186881
  0
LINE
  8
0
  6
CONTINUOUS
 62
     3
 10
 26.339627012421708
 20
-82.794303797468416
 11
 26.617088607594845
 21
-82.51684220229528
  0
ENDBLK
  8
0
  0
BLOCK
  8
0
  2
CADWIN-G12
 70
    0
 10
0.0
 20
0.0
  0
LINE
  8
0
  6
CONTINUOUS
 62
     3
 10
 25.11708901803695
 20
-110.79430379746842
 11
 26.117089018036943
 21
-109.79430379746842
  0
LINE
  8
0
  6
CONTINUOUS
 62
     3
 10
 24.834246381928551
 20
-110.79430379746842
 11
 25.834246381928544
 21
-109.79430379746842
  0
LINE
  8
0
  6
CONTINUOUS
 62
     3
 10
 24.617088607594837
 20
-110.72861893569373
 11
 25.551403745820146
 21
-109.79430379746842
  0
LINE
  8
0
  6
CONTINUOUS
 62
     3
 10
 24.617088607594837
 20
-110.44577629958533
 11
 25.268561109711747
 21
-109.79430379746842
  0
LINE
  8
0
  6
CONTINUOUS
 62
     3
 10
 24.617088607594837
 20
-110.16293366347693
 11
 24.985718473603349
 21
-109.79430379746842
  0
LINE
  8
0
  6
CONTINUOUS
 62
     3
 10
 24.617088607594837
 20
-109.88009102736854
 11
 24.70287583749495
 21
-109.79430379746842
  0
LINE
  8
0
  6
CONTINUOUS
 62
     3
 10
 25.399931654145348
 20
-110.79430379746842
 11
 26.399931654145341
 21
-109.79430379746842
  0
LINE
  8
0
  6
CONTINUOUS
 62
     3
 10
 25.682774290253747
 20
-110.79430379746842
 11
 26.617088607594837
 21
-109.85998948012733
  0
LINE
  8
0
  6
CONTINUOUS
 62
     3
 10
 25.965616926362145
 20
-110.79430379746842
 11
 26.617088607594837
 21
-110.14283211623572
  0
LINE
  8
0
  6
CONTINUOUS
 62
     3
 10
 26.248459562470543
 20
-110.79430379746842
 11
 26.617088607594837
 21
-110.42567475234412
  0
LINE
  8
0
  6
CONTINUOUS
 62
     3
 10
 26.531302198578942
 20
-110.79430379746842
 11
 26.617088607594837
 21
-110.70851738845252
  0
ENDBLK
  8
0
  0
BLOCK
  8
0
  2
CADWIN-G13
 70
    0
 10
0.0
 20
0.0
  0
LINE
  8
0
  6
CONTINUOUS
 62
     3
 10
 20.11708901803695
 20
-114.7943037974684
 11
 21.11708901803695
 21
-113.7943037974684
  0
LINE
  8
0
  6
CONTINUOUS
 62
     3
 10
 19.834246381928551
 20
-114.7943037974684
 11
 20.834246381928551
 21
-113.7943037974684
  0
LINE
  8
0
  6
CONTINUOUS
 62
     3
 10
 19.551403745820153
 20
-114.7943037974684
 11
 20.551403745820153
 21
-113.7943037974684
  0
LINE
  8
0
  6
CONTINUOUS
 62
     3
 10
 19.268561109711754
 20
-114.7943037974684
 11
 20.268561109711754
 21
-113.7943037974684
  0
LINE
  8
0
  6
CONTINUOUS
 62
     3
 10
 18.985718473603356
 20
-114.7943037974684
 11
 19.985718473603356
 21
-113.7943037974684
  0
LINE
  8
0
  6
CONTINUOUS
 62
     3
 10
 18.702875837494958
 20
-114.7943037974684
 11
 19.702875837494958
 21
-113.7943037974684
  0
LINE
  8
0
  6
CONTINUOUS
 62
     3
 10
 18.420033201386559
 20
-114.7943037974684
 11
 19.420033201386559
 21
-113.7943037974684
  0
LINE
  8
0
  6
CONTINUOUS
 62
     3
 10
 18.137190565278161
 20
-114.7943037974684
 11
 19.137190565278161
 21
-113.7943037974684
  0
LINE
  8
0
  6
CONTINUOUS
 62
     3
 10
 17.854347929169762
 20
-114.7943037974684
 11
 18.854347929169762
 21
-113.7943037974684
  0
LINE
  8
0
  6
CONTINUOUS
 62
     3
 10
 17.571505293061364
 20
-114.7943037974684
 11
 18.571505293061364
 21
-113.7943037974684
  0
LINE
  8
0
  6
CONTINUOUS
 62
     3
 10
 17.288662656952965
 20
-114.7943037974684
 11
 18.288662656952965
 21
-113.7943037974684
  0
LINE
  8
0
  6
CONTINUOUS
 62
     3
 10
 17.005820020844567
 20
-114.7943037974684
 11
 18.005820020844567
 21
-113.7943037974684
  0
LINE
  8
0
  6
CONTINUOUS
 62
     3
 10
 16.722977384736168
 20
-114.7943037974684
 11
 17.722977384736168
 21
-113.7943037974684
  0
LINE
  8
0
  6
CONTINUOUS
 62
     3
 10
 16.44013474862777
 20
-114.7943037974684
 11
 17.44013474862777
 21
-113.7943037974684
  0
LINE
  8
0
  6
CONTINUOUS
 62
     3
 10
 16.157292112519372
 20
-114.7943037974684
 11
 17.157292112519372
 21
-113.7943037974684
  0
LINE
  8
0
  6
CONTINUOUS
 62
     3
 10
 15.874449476410973
 20
-114.7943037974684
 11
 16.874449476410973
 21
-113.7943037974684
  0
LINE
  8
0
  6
CONTINUOUS
 62
     3
 10
 15.591606840302576
 20
-114.7943037974684
 11
 16.591606840302575
 21
-113.7943037974684
  0
LINE
  8
0
  6
CONTINUOUS
 62
     3
 10
 15.308764204194176
 20
-114.7943037974684
 11
 16.308764204194176
 21
-113.7943037974684
  0
LINE
  8
0
  6
CONTINUOUS
 62
     3
 10
 15.02592156808578
 20
-114.7943037974684
 11
 16.025921568085778
 21
-113.7943037974684
  0
LINE
  8
0
  6
CONTINUOUS
 62
     3
 10
 14.743078931977379
 20
-114.7943037974684
 11
 15.743078931977379
 21
-113.7943037974684
  0
LINE
  8
0
  6
CONTINUOUS
 62
     3
 10
 14.617088607594839
 20
-114.63745148574255
 11
 15.460236295868983
 21
-113.7943037974684
  0
LINE
  8
0
  6
CONTINUOUS
 62
     3
 10
 14.617088607594839
 20
-114.35460884963415
 11
 15.177393659760583
 21
-113.7943037974684
  0
LINE
  8
0
  6
CONTINUOUS
 62
     3
 10
 14.617088607594839
 20
-114.07176621352575
 11
 14.894551023652186
 21
-113.7943037974684
  0
LINE
  8
0
  6
CONTINUOUS
 62
     3
 10
 20.399931654145348
 20
-114.7943037974684
 11
 21.399931654145348
 21
-113.7943037974684
  0
LINE
  8
0
  6
CONTINUOUS
 62
     3
 10
 20.682774290253747
 20
-114.7943037974684
 11
 21.682774290253747
 21
-113.7943037974684
  0
LINE
  8
0
  6
CONTINUOUS
 62
     3
 10
 20.965616926362145
 20
-114.7943037974684
 11
 21.965616926362145
 21
-113.7943037974684
  0
LINE
  8
0
  6
CONTINUOUS
 62
     3
 10
 21.248459562470543
 20
-114.7943037974684
 11
 22.248459562470543
 21
-113.7943037974684
  0
LINE
  8
0
  6
CONTINUOUS
 62
     3
 10
 21.531302198578942
 20
-114.7943037974684
 11
 22.531302198578942
 21
-113.7943037974684
  0
LINE
  8
0
  6
CONTINUOUS
 62
     3
 10
 21.81414483468734
 20
-114.7943037974684
 11
 22.81414483468734
 21
-113.7943037974684
  0
LINE
  8
0
  6
CONTINUOUS
 62
     3
 10
 22.096987470795739
 20
-114.7943037974684
 11
 23.096987470795739
 21
-113.7943037974684
  0
LINE
  8
0
  6
CONTINUOUS
 62
     3
 10
 22.379830106904137
 20
-114.7943037974684
 11
 23.379830106904137
 21
-113.7943037974684
  0
LINE
  8
0
  6
CONTINUOUS
 62
     3
 10
 22.662672743012536
 20
-114.7943037974684
 11
 23.662672743012536
 21
-113.7943037974684
  0
LINE
  8
0
  6
CONTINUOUS
 62
     3
 10
 22.945515379120934
 20
-114.7943037974684
 11
 23.945515379120934
 21
-113.7943037974684
  0
LINE
  8
0
  6
CONTINUOUS
 62
     3
 10
 23.228358015229333
 20
-114.7943037974684
 11
 24.22835801522934
 21
-113.7943037974684
  0
LINE
  8
0
  6
CONTINUOUS
 62
     3
 10
 23.511200651337731
 20
-114.7943037974684
 11
 24.511200651337738
 21
-113.7943037974684
  0
LINE
  8
0
  6
CONTINUOUS
 62
     3
 10
 23.794043287446129
 20
-114.7943037974684
 11
 24.794043287446137
 21
-113.7943037974684
  0
LINE
  8
0
  6
CONTINUOUS
 62
     3
 10
 24.076885923554528
 20
-114.79430379746842
 11
 25.076885923554535
 21
-113.7943037974684
  0
LINE
  8
0
  6
CONTINUOUS
 62
     3
 10
 24.359728559662926
 20
-114.79430379746842
 11
 25.359728559662933
 21
-113.7943037974684
  0
LINE
  8
0
  6
CONTINUOUS
 62
     3
 10
 24.642571195771325
 20
-114.79430379746842
 11
 25.642571195771332
 21
-113.7943037974684
  0
LINE
  8
0
  6
CONTINUOUS
 62
     3
 10
 24.925413831879723
 20
-114.79430379746842
 11
 25.92541383187973
 21
-113.7943037974684
  0
LINE
  8
0
  6
CONTINUOUS
 62
     3
 10
 25.208256467988122
 20
-114.79430379746842
 11
 26.208256467988129
 21
-113.7943037974684
  0
LINE
  8
0
  6
CONTINUOUS
 62
     3
 10
 25.49109910409652
 20
-114.79430379746842
 11
 26.491099104096527
 21
-113.7943037974684
  0
LINE
  8
0
  6
CONTINUOUS
 62
     3
 10
 25.773941740204918
 20
-114.79430379746842
 11
 26.617088607594837
 21
-113.9511569300785
  0
LINE
  8
0
  6
CONTINUOUS
 62
     3
 10
 26.056784376313317
 20
-114.79430379746842
 11
 26.617088607594837
 21
-114.2339995661869
  0
LINE
  8
0
  6
CONTINUOUS
 62
     3
 10
 26.339627012421715
 20
-114.79430379746842
 11
 26.617088607594837
 21
-114.51684220229529
  0
ENDBLK
  8
0
  0
BLOCK
  8
0
  2
CADWIN-G14
 70
    0
 10
0.0
 20
0.0
  0
LINE
  8
0
  6
CONTINUOUS
 62
     3
 10
 15.11708901803695
 20
-110.7943037974684
 11
 16.117089018036935
 21
-109.79430379746842
  0
LINE
  8
0
  6
CONTINUOUS
 62
     3
 10
 14.834246381928551
 20
-110.7943037974684
 11
 15.834246381928537
 21
-109.79430379746842
  0
LINE
  8
0
  6
CONTINUOUS
 62
     3
 10
 14.617088607594852
 20
-110.7286189356937
 11
 15.551403745820137
 21
-109.79430379746842
  0
LINE
  8
0
  6
CONTINUOUS
 62
     3
 10
 14.617088607594852
 20
-110.4457762995853
 11
 15.26856110971174
 21
-109.79430379746842
  0
LINE
  8
0
  6
CONTINUOUS
 62
     3
 10
 14.617088607594852
 20
-110.16293366347691
 11
 14.98571847360334
 21
-109.79430379746842
  0
LINE
  8
0
  6
CONTINUOUS
 62
     3
 10
 14.617088607594852
 20
-109.88009102736851
 11
 14.702875837494943
 21
-109.79430379746842
  0
LINE
  8
0
  6
CONTINUOUS
 62
     3
 10
 15.399931654145346
 20
-110.7943037974684
 11
 16.399931654145334
 21
-109.79430379746842
  0
LINE
  8
0
  6
CONTINUOUS
 62
     3
 10
 15.682774290253747
 20
-110.7943037974684
 11
 16.617088607594837
 21
-109.85998948012731
  0
LINE
  8
0
  6
CONTINUOUS
 62
     3
 10
 15.965616926362143
 20
-110.7943037974684
 11
 16.617088607594837
 21
-110.14283211623571
  0
LINE
  8
0
  6
CONTINUOUS
 62
     3
 10
 16.248459562470543
 20
-110.7943037974684
 11
 16.617088607594837
 21
-110.42567475234411
  0
LINE
  8
0
  6
CONTINUOUS
 62
     3
 10
 16.531302198578942
 20
-110.7943037974684
 11
 16.617088607594837
 21
-110.70851738845251
  0
ENDBLK
  8
0
  0
BLOCK
  8
0
  2
CADWIN-G15
 70
    0
 10
0.0
 20
0.0
  0
LINE
  8
0
  6
CONTINUOUS
 62
     4
 10
-178.82853355588796
 20
 202.84018987341767
 11
-177.54679003568069
 21
 201.09949142279285
  0
LINE
  8
0
  6
CONTINUOUS
 62
     4
 10
-177.54679003568069
 20
 201.09949142279285
 11
-176.40371163698694
 21
 199.22146983708006
  0
LINE
  8
0
  6
CONTINUOUS
 62
     4
 10
-176.40371163698694
 20
 199.22146983708006
 11
-175.53796348132019
 21
 197.06880198119134
  0
LINE
  8
0
  6
CONTINUOUS
 62
     4
 10
-175.53796348132019
 20
 197.06880198119134
 11
-175.08821069019399
 21
 194.50416472003866
  0
LINE
  8
0
  6
CONTINUOUS
 62
     4
 10
-175.08821069019399
 20
 194.50416472003866
 11
-175.19311838512181
 21
 191.39023491853408
  0
LINE
  8
0
  6
CONTINUOUS
 62
     4
 10
-175.19311838512181
 20
 191.39023491853408
 11
-175.91246894891182
 21
 187.66026968887883
  0
LINE
  8
0
  6
CONTINUOUS
 62
     4
 10
-175.91246894891182
 20
 187.66026968887883
 11
-176.99051380955075
 21
 183.52984713243109
  0
LINE
  8
0
  6
CONTINUOUS
 62
     4
 10
-176.99051380955075
 20
 183.52984713243109
 11
-178.09262165632001
 21
 179.28512559783834
  0
LINE
  8
0
  6
CONTINUOUS
 62
     4
 10
-178.09262165632001
 20
 179.28512559783834
 11
-178.88416117850093
 21
 175.21226343374795
  0
LINE
  8
0
  6
CONTINUOUS
 62
     4
 10
-178.88416117850093
 20
 175.21226343374795
 11
-179.03050106537495
 21
 171.59741898880736
  0
LINE
  8
0
  6
CONTINUOUS
 62
     4
 10
-179.03050106537495
 20
 171.59741898880736
 11
-178.31218919163373
 21
 168.64577648129219
  0
LINE
  8
0
  6
CONTINUOUS
 62
     4
 10
-178.31218919163373
 20
 168.64577648129219
 11
-176.97049017361019
 21
 166.23862360799083
  0
LINE
  8
0
  6
CONTINUOUS
 62
     4
 10
-176.97049017361019
 20
 166.23862360799083
 11
-175.36184781304752
 21
 164.17627393531978
  0
LINE
  8
0
  6
CONTINUOUS
 62
     4
 10
-175.36184781304752
 20
 164.17627393531978
 11
-173.84270591168897
 21
 162.25904102969565
  0
LINE
  8
0
  6
CONTINUOUS
 62
     4
 10
-173.84270591168897
 20
 162.25904102969565
 11
-172.76950827127772
 21
 160.28723845753495
  0
LINE
  8
0
  6
CONTINUOUS
 62
     4
 10
-172.76950827127772
 20
 160.28723845753495
 11
-172.4125451245101
 21
 158.10293606085551
  0
LINE
  8
0
  6
CONTINUOUS
 62
     4
 10
-172.4125451245101
 20
 158.10293606085551
 11
-172.69749242789493
 21
 155.71522878408004
  0
LINE
  8
0
  6
CONTINUOUS
 62
     4
 10
-172.69749242789493
 20
 155.71522878408004
 11
-173.46387256889406
 21
 153.17496784723261
  0
LINE
  8
0
  6
CONTINUOUS
 62
     4
 10
-173.46387256889406
 20
 153.17496784723261
 11
-174.5512079349694
 21
 150.53300447033715
  0
LINE
  8
0
  6
CONTINUOUS
 62
     4
 10
-174.5512079349694
 20
 150.53300447033715
 11
-175.79902091358284
 21
 147.8401898734177
  0
ENDBLK
  8
0
  0
BLOCK
  8
0
  2
CADWIN-G16
 70
    0
 10
0.0
 20
0.0
  0
LINE
  8
0
  6
CONTINUOUS
 62
     176
 10
-243.38291139240511
 20
 145.91519003276582
 11
-242.88291139240511
 21
 146.41519003276582
  0
LINE
  8
0
  6
CONTINUOUS
 62
     176
 10
-243.38291139240511
 20
 146.19803266887422
 11
-242.88291139240511
 21
 146.69803266887422
  0
LINE
  8
0
  6
CONTINUOUS
 62
     176
 10
-243.38291139240511
 20
 146.48087530498262
 11
-243.02359682397
 21
 146.84018987341773
  0
LINE
  8
0
  6
CONTINUOUS
 62
     176
 10
-243.38291139240511
 20
 146.76371794109102
 11
-243.30643946007839
 21
 146.84018987341773
  0
LINE
  8
0
  6
CONTINUOUS
 62
     176
 10
-243.38291139240511
 20
 145.63234739665742
 11
-242.88291139240511
 21
 146.13234739665742
  0
LINE
  8
0
  6
CONTINUOUS
 62
     176
 10
-243.2422262795364
 20
 145.49018987341773
 11
-242.88291139240511
 21
 145.84950476054902
  0
LINE
  8
0
  6
CONTINUOUS
 62
     176
 10
-242.959383643428
 20
 145.49018987341773
 11
-242.88291139240511
 21
 145.56666212444063
  0
ENDBLK
  8
0
  0
BLOCK
  8
0
  2
CADWIN-G17
 70
    0
 10
0.0
 20
0.0
  0
LINE
  8
0
  6
CONTINUOUS
 62
     176
 10
-218.88291139240508
 20
 145.91519003276582
 11
-218.38291139240508
 21
 146.41519003276582
  0
LINE
  8
0
  6
CONTINUOUS
 62
     176
 10
-218.88291139240508
 20
 146.19803266887422
 11
-218.38291139240508
 21
 146.69803266887422
  0
LINE
  8
0
  6
CONTINUOUS
 62
     176
 10
-218.88291139240508
 20
 146.48087530498262
 11
-218.52359682396997
 21
 146.84018987341773
  0
LINE
  8
0
  6
CONTINUOUS
 62
     176
 10
-218.88291139240508
 20
 146.76371794109102
 11
-218.80643946007837
 21
 146.84018987341773
  0
LINE
  8
0
  6
CONTINUOUS
 62
     176
 10
-218.88291139240508
 20
 145.63234739665742
 11
-218.38291139240508
 21
 146.13234739665742
  0
LINE
  8
0
  6
CONTINUOUS
 62
     176
 10
-218.74222627953637
 20
 145.49018987341773
 11
-218.38291139240508
 21
 145.84950476054902
  0
LINE
  8
0
  6
CONTINUOUS
 62
     176
 10
-218.45938364342797
 20
 145.49018987341773
 11
-218.38291139240508
 21
 145.56666212444063
  0
ENDBLK
  8
0
  0
BLOCK
  8
0
  2
CADWIN-G18
 70
    0
 10
0.0
 20
0.0
  0
LINE
  8
0
  6
CONTINUOUS
 62
     4
 10
-278.8830170088176
 20
 163.14476409139507
 11
-277.51651865014458
 21
 161.88532883559597
  0
LINE
  8
0
  6
CONTINUOUS
 62
     4
 10
-277.51651865014458
 20
 161.88532883559597
 11
-276.20982680692549
 21
 160.4451412977146
  0
LINE
  8
0
  6
CONTINUOUS
 62
     4
 10
-276.20982680692549
 20
 160.4451412977146
 11
-275.02274799461435
 21
 158.64344919566864
  0
LINE
  8
0
  6
CONTINUOUS
 62
     4
 10
-275.02274799461435
 20
 158.64344919566864
 11
-274.01508872866498
 21
 156.29950024737585
  0
LINE
  8
0
  6
CONTINUOUS
 62
     4
 10
-274.01508872866498
 20
 156.29950024737585
 11
-273.24665552453149
 21
 153.23254217075393
  0
LINE
  8
0
  6
CONTINUOUS
 62
     4
 10
-273.24665552453149
 20
 153.23254217075393
 11
-272.75787469906658
 21
 149.34772860703285
  0
LINE
  8
0
  6
CONTINUOUS
 62
     4
 10
-272.75787469906658
 20
 149.34772860703285
 11
-272.51165177471859
 21
 144.8938368906914
  0
LINE
  8
0
  6
CONTINUOUS
 62
     4
 10
-272.51165177471859
 20
 144.8938368906914
 11
-272.45151207533451
 21
 140.20555027952071
  0
LINE
  8
0
  6
CONTINUOUS
 62
     4
 10
-272.45151207533451
 20
 140.20555027952071
 11
-272.52098092476149
 21
 135.61755203131179
  0
LINE
  8
0
  6
CONTINUOUS
 62
     4
 10
-272.52098092476149
 20
 135.61755203131179
 11
-272.66358364684669
 21
 131.4645254038557
  0
LINE
  8
0
  6
CONTINUOUS
 62
     4
 10
-272.66358364684669
 20
 131.4645254038557
 11
-272.83972688456248
 21
 128.00341073791887
  0
LINE
  8
0
  6
CONTINUOUS
 62
     4
 10
-272.83972688456248
 20
 128.00341073791887
 11
-273.07734255738279
 21
 125.18017670616922
  0
LINE
  8
0
  6
CONTINUOUS
 62
     4
 10
-273.07734255738279
 20
 125.18017670616922
 11
-273.42124390390677
 21
 122.86304906424991
  0
LINE
  8
0
  6
CONTINUOUS
 62
     4
 10
-273.42124390390677
 20
 122.86304906424991
 11
-273.91624416273368
 21
 120.92025356780424
  0
LINE
  8
0
  6
CONTINUOUS
 62
     4
 10
-273.91624416273368
 20
 120.92025356780424
 11
-274.6071565724626
 21
 119.22001597247544
  0
LINE
  8
0
  6
CONTINUOUS
 62
     4
 10
-274.6071565724626
 20
 119.22001597247544
 11
-275.52330131894291
 21
 117.64883161940755
  0
LINE
  8
0
  6
CONTINUOUS
 62
     4
 10
-275.52330131894291
 20
 117.64883161940755
 11
-276.63202637702426
 21
 116.16627419174772
  0
LINE
  8
0
  6
CONTINUOUS
 62
     4
 10
-276.63202637702426
 20
 116.16627419174772
 11
-277.8851866688064
 21
 114.75018695814396
  0
LINE
  8
0
  6
CONTINUOUS
 62
     4
 10
-277.8851866688064
 20
 114.75018695814396
 11
-279.23463711638908
 21
 113.37841318724423
  0
LINE
  8
0
  6
CONTINUOUS
 62
     4
 10
-279.23463711638908
 20
 113.37841318724423
 11
-280.63223264187195
 21
 112.02879614769654
  0
ENDBLK
  8
0
  0
BLOCK
  8
0
  2
CADWIN-G19
 70
    0
 10
0.0
 20
0.0
  0
LINE
  8
192
  6
CONTINUOUS
 62
     7
 10
-124.88291139240515
 20
 115.84018987341767
 11
-124.73885879629061
 21
 75.526773215405612
  0
LINE
  8
192
  6
CONTINUOUS
 62
     7
 10
-124.88291139240515
 20
 115.84018987341767
 11
-125.90498716657265
 21
 110.94576844572474
  0
LINE
  8
192
  6
CONTINUOUS
 62
     7
 10
-124.88291139240515
 20
 115.84018987341767
 11
-123.82588353196431
 21
 110.95319774100619
  0
CIRCLE
  8
192
  6
CONTINUOUS
 62
     7
 10
-124.71863256526896
 20
 69.866420673418617
 40
 5.6603886792339626
  0
TEXT
  8
192
  6
CONTINUOUS
 62
     56
 10
-127.11863256526897
 20
 66.866420673418617
 11
-122.31863256526897
 21
 66.866420673418617
 40
 6
 41
 0.8
  1
1
 50
 0
 72
  5
  0
ENDBLK
  8
0
  0
BLOCK
  8
0
  2
CADWIN-G20
 70
    0
 10
0.0
 20
0.0
  0
LINE
  8
192
  6
CONTINUOUS
 62
     7
 10
-161.38624901107596
 20
 144.19165760152953
 11
-149.57257465937556
 21
 75.445039589454822
  0
POINT
  8
192
  6
CONTINUOUS
 62
     7
 10
-161.38624901107596
 20
 144.19165760152953
  0
CIRCLE
  8
192
  6
CONTINUOUS
 62
     7
 10
-148.6139240506327
 20
 69.866420673418617
 40
 5.6603886792339626
  0
TEXT
  8
192
  6
CONTINUOUS
 62
     56
 10
-151.01392405063271
 20
 66.866420673418617
 11
-146.2139240506327
 21
 66.866420673418617
 40
 6
 41
 0.8
  1
2
 50
 0
 72
  5
  0
ENDBLK
  8
0
  0
BLOCK
  8
0
  2
CADWIN-G21
 70
    0
 10
0.0
 20
0.0
  0
LINE
  8
192
  6
CONTINUOUS
 62
     7
 10
-168.76028481012651
 20
 116.84018987341767
 11
-163.3292807909053
 21
 75.478635553780705
  0
LINE
  8
192
  6
CONTINUOUS
 62
     7
 10
-168.76028481012651
 20
 116.84018987341767
 11
-169.1542799867232
 21
 111.85573726547581
  0
LINE
  8
192
  6
CONTINUOUS
 62
     7
 10
-168.76028481012651
 20
 116.84018987341767
 11
-167.09285779271482
 21
 112.12641355908058
  0
CIRCLE
  8
192
  6
CONTINUOUS
 62
     7
 10
-162.59236550632886
 20
 69.866420673418617
 40
 5.6603886792339626
  0
TEXT
  8
192
  6
CONTINUOUS
 62
     56
 10
-164.99236550632887
 20
 66.866420673418617
 11
-160.19236550632885
 21
 66.866420673418617
 40
 6
 41
 0.8
  1
3
 50
 0
 72
  5
  0
ENDBLK
  8
0
  0
BLOCK
  8
0
  2
CADWIN-G22
 70
    0
 10
0.0
 20
0.0
  0
LINE
  8
192
  6
CONTINUOUS
 62
     7
 10
-190.87986554712057
 20
 127.84700382644726
 11
-177.75663911249114
 21
 75.357781629044737
  0
LINE
  8
192
  6
CONTINUOUS
 62
     7
 10
-190.87986554712057
 20
 127.84700382644726
 11
-190.70212467741894
 21
 122.85016400679747
  0
LINE
  8
192
  6
CONTINUOUS
 62
     7
 10
-190.87986554712057
 20
 127.84700382644726
 11
-188.68509332873535
 21
 123.35445723131832
  0
CIRCLE
  8
192
  6
CONTINUOUS
 62
     7
 10
-176.38370253164521
 20
 69.866420673418617
 40
 5.6603886792339626
  0
TEXT
  8
192
  6
CONTINUOUS
 62
     56
 10
-178.78370253164522
 20
 66.866420673418617
 11
-173.98370253164521
 21
 66.866420673418617
 40
 6
 41
 0.8
  1
4
 50
 0
 72
  5
  0
ENDBLK
  8
0
  0
BLOCK
  8
0
  2
CADWIN-G23
 70
    0
 10
0.0
 20
0.0
  0
LINE
  8
192
  6
CONTINUOUS
 62
     7
 10
-202.88291139240511
 20
 128.8401898734177
 11
-211.08208222298191
 21
 75.461192986348266
  0
LINE
  8
192
  6
CONTINUOUS
 62
     7
 10
-202.88291139240511
 20
 128.8401898734177
 11
-204.65294237953347
 21
 124.16397449080266
  0
LINE
  8
192
  6
CONTINUOUS
 62
     7
 10
-202.88291139240511
 20
 128.8401898734177
 11
-202.59792701355863
 21
 123.84831808982656
  0
CIRCLE
  8
192
  6
CONTINUOUS
 62
     7
 10
-211.94145569620287
 20
 69.866420673418617
 40
 5.6603886792339626
  0
TEXT
  8
192
  6
CONTINUOUS
 62
     56
 10
-214.34145569620287
 20
 66.866420673418617
 11
-209.54145569620286
 21
 66.866420673418617
 40
 6
 41
 0.8
  1
5
 50
 0
 72
  5
  0
ENDBLK
  8
0
  0
BLOCK
  8
0
  2
CADWIN-G24
 70
    0
 10
0.0
 20
0.0
  0
LINE
  8
192
  6
CONTINUOUS
 62
     7
 10
-282.38291139240516
 20
 117.8401898734177
 11
-298.19099273133651
 21
 75.174205473961592
  0
LINE
  8
192
  6
CONTINUOUS
 62
     7
 10
-282.38291139240516
 20
 117.8401898734177
 11
-285.05689026353303
 21
 113.61528312926798
  0
LINE
  8
192
  6
CONTINUOUS
 62
     7
 10
-282.38291139240516
 20
 117.8401898734177
 11
-283.10728825753256
 21
 112.89294031863797
  0
CIRCLE
  8
192
  6
CONTINUOUS
 62
     7
 10
-300.15756856540065
 20
 69.866420673418617
 40
 5.6603886792339626
  0
TEXT
  8
192
  6
CONTINUOUS
 62
     56
 10
-302.55756856540063
 20
 66.866420673418617
 11
-297.75756856540067
 21
 66.866420673418617
 40
 6
 41
 0.8
  1
6
 50
 0
 72
  5
  0
ENDBLK
  8
0
  0
BLOCK
  8
0
  2
CADWIN-G25
 70
    0
 10
0.0
 20
0.0
  0
LINE
  8
192
  6
CONTINUOUS
 62
     7
 10
-214.39770486876691
 20
 134.5901898734177
 11
-225.73701691371323
 21
 75.425628418186278
  0
LINE
  8
192
  6
CONTINUOUS
 62
     7
 10
-214.39770486876691
 20
 134.5901898734177
 11
-216.33927062937778
 21
 129.98255247479099
  0
LINE
  8
192
  6
CONTINUOUS
 62
     7
 10
-214.39770486876691
 20
 134.5901898734177
 11
-214.29731848205941
 21
 129.59119771765631
  0
CIRCLE
  8
192
  6
CONTINUOUS
 62
     7
 10
-226.80247890295323
 20
 69.866420673418617
 40
 5.6603886792339626
  0
TEXT
  8
192
  6
CONTINUOUS
 62
     56
 10
-229.20247890295323
 20
 66.866420673418617
 11
-224.40247890295322
 21
 66.866420673418617
 40
 6
 41
 0.8
  1
7
 50
 0
 72
  5
  0
ENDBLK
  8
0
  0
BLOCK
  8
0
  2
CADWIN-G26
 70
    0
 10
0.0
 20
0.0
  0
LINE
  8
192
  6
CONTINUOUS
 62
     7
 10
-270.3321523769385
 20
 91.016829391785578
 11
-277.77280006416862
 21
 74.999926219878233
  0
LINE
  8
192
  6
CONTINUOUS
 62
     7
 10
-270.3321523769385
 20
 91.016829391785578
 11
-273.33545444543932
 21
 87.019308074101502
  0
LINE
  8
192
  6
CONTINUOUS
 62
     7
 10
-270.3321523769385
 20
 91.016829391785578
 11
-271.4498669381673
 21
 86.143358948701191
  0
CIRCLE
  8
192
  6
CONTINUOUS
 62
     7
 10
-280.15756856540065
 20
 69.866420673418617
 40
 5.6603886792339626
  0
TEXT
  8
192
  6
CONTINUOUS
 62
     56
 10
-282.55756856540063
 20
 66.866420673418617
 11
-277.75756856540067
 21
 66.866420673418617
 40
 6
 41
 0.8
  1
8
 50
 0
 72
  5
  0
ENDBLK
  8
0
  0
BLOCK
  8
0
  2
CADWIN-G27
 70
    0
 10
0.0
 20
0.0
  0
LINE
  8
192
  6
CONTINUOUS
 62
     7
 10
-321.88291139240511
 20
 120.3401898734177
 11
-338.86864665782809
 21
 75.164673824153255
  0
LINE
  8
192
  6
CONTINUOUS
 62
     7
 10
-321.88291139240511
 20
 120.3401898734177
 11
-324.57720443001097
 21
 116.12820874483835
  0
LINE
  8
192
  6
CONTINUOUS
 62
     7
 10
-321.88291139240511
 20
 120.3401898734177
 11
-322.63110349353104
 21
 115.39648594014938
  0
CIRCLE
  8
192
  6
CONTINUOUS
 62
     7
 10
-340.86075949367114
 20
 69.866420673418617
 40
 5.6603886792339626
  0
TEXT
  8
192
  6
CONTINUOUS
 62
     56
 10
-343.26075949367112
 20
 66.866420673418617
 11
-338.46075949367116
 21
 66.866420673418617
 40
 6
 41
 0.8
  1
9
 50
 0
 72
  5
  0
ENDBLK
  8
0
  0
BLOCK
  8
0
  2
CADWIN-G28
 70
    0
 10
0.0
 20
0.0
  0
LINE
  8
192
  6
CONTINUOUS
 62
     7
 10
-247.38291139240513
 20
-151.31800595718093
 11
-263.36669636232546
 21
-151.51057453122039
  0
LINE
  8
192
  6
CONTINUOUS
 62
     7
 10
-247.38291139240513
 20
-151.31800595718093
 11
-252.28581792074962
 21
-150.33744103107102
  0
LINE
  8
192
  6
CONTINUOUS
 62
     7
 10
-247.38291139240513
 20
-151.31800595718093
 11
-252.26077106698429
 21
-152.41640706566284
  0
CIRCLE
  8
192
  6
CONTINUOUS
 62
     7
 10
-269.02667428873758
 20
-151.57876450502417
 40
 5.6603886792339626
  0
TEXT
  8
192
  6
CONTINUOUS
 62
     56
 10
-273.82667428873759
 20
-154.57876450502417
 11
-264.22667428873757
 21
-154.57876450502417
 40
 6
 41
 0.8
  1
11
 50
 0
 72
  5
  0
ENDBLK
  8
0
  0
BLOCK
  8
0
  2
CADWIN-G29
 70
    0
 10
0.0
 20
0.0
  0
LINE
  8
192
  6
CONTINUOUS
 62
     7
 10
-210.38291139240519
 20
 157.8401898734177
 11
-192.41658559031126
 21
 210.20193884386487
  0
LINE
  8
192
  6
CONTINUOUS
 62
     7
 10
-210.38291139240519
 20
 157.8401898734177
 11
-207.81235402979601
 21
 162.12880676532302
  0
LINE
  8
192
  6
CONTINUOUS
 62
     7
 10
-210.38291139240519
 20
 157.8401898734177
 11
-209.77892802823558
 21
 162.80357622708857
  0
CIRCLE
  8
192
  6
CONTINUOUS
 62
     7
 10
-190.57952803599682
 20
 215.55592983583864
 40
 5.6603886792339626
  0
TEXT
  8
192
  6
CONTINUOUS
 62
     56
 10
-195.37952803599683
 20
 212.55592983583864
 11
-185.7795280359968
 21
 212.55592983583864
 40
 6
 41
 0.8
  1
12
 50
 0
 72
  5
  0
ENDBLK
  8
0
  0
BLOCK
  8
0
  2
CADWIN-G30
 70
    0
 10
0.0
 20
0.0
  0
LINE
  8
192
  6
CONTINUOUS
 62
     7
 10
-218.63291139240508
 20
 146.16519003276582
 11
-204.74896617070672
 21
 210.02475752978549
  0
POINT
  8
192
  6
CONTINUOUS
 62
     7
 10
-218.63291139240508
 20
 146.16519003276582
  0
CIRCLE
  8
192
  6
CONTINUOUS
 62
     7
 10
-203.54641350210932
 20
 215.55592983583864
 40
 5.6603886792339626
  0
TEXT
  8
192
  6
CONTINUOUS
 62
     56
 10
-208.34641350210933
 20
 212.55592983583864
 11
-198.74641350210931
 21
 212.55592983583864
 40
 6
 41
 0.8
  1
13
 50
 0
 72
  5
  0
ENDBLK
  8
0
  0
BLOCK
  8
0
  2
CADWIN-G31
 70
    0
 10
0.0
 20
0.0
  0
LINE
  8
192
  6
CONTINUOUS
 62
     7
 10
-217.38291139240511
 20
 195.8401898734177
 11
-216.36861469049677
 21
 209.91019222295313
  0
LINE
  8
192
  6
CONTINUOUS
 62
     7
 10
-217.38291139240511
 20
 195.8401898734177
 11
-215.99438634608305
 21
 200.64352186233293
  0
LINE
  8
192
  6
CONTINUOUS
 62
     7
 10
-217.38291139240511
 20
 195.8401898734177
 11
-218.06812177226459
 21
 200.79301600960832
  0
CIRCLE
  8
192
  6
CONTINUOUS
 62
     7
 10
-215.96161738528463
 20
 215.55592983583864
 40
 5.6603886792339626
  0
TEXT
  8
192
  6
CONTINUOUS
 62
     56
 10
-220.76161738528464
 20
 212.55592983583864
 11
-211.16161738528461
 21
 212.55592983583864
 40
 6
 41
 0.8
  1
14
 50
 0
 72
  5
  0
ENDBLK
  8
0
  0
BLOCK
  8
0
  2
CADWIN-G32
 70
    0
 10
0.0
 20
0.0
  0
LINE
  8
192
  6
CONTINUOUS
 62
     7
 10
-230.4509076468552
 20
 116.84018987341767
 11
-240.27108385065017
 21
 75.374452865325182
  0
LINE
  8
192
  6
CONTINUOUS
 62
     7
 10
-230.4509076468552
 20
 116.84018987341767
 11
-232.58956446054273
 21
 112.32066035882571
  0
LINE
  8
192
  6
CONTINUOUS
 62
     7
 10
-230.4509076468552
 20
 116.84018987341767
 11
-230.56640960140868
 21
 111.84152412159007
  0
CIRCLE
  8
192
  6
CONTINUOUS
 62
     7
 10
-241.5755306195606
 20
 69.866420673418617
 40
 5.6603886792339626
  0
TEXT
  8
192
  6
CONTINUOUS
 62
     56
 10
-246.37553061956061
 20
 66.866420673418617
 11
-236.77553061956061
 21
 66.866420673418617
 40
 6
 41
 0.8
  1
15
 50
 0
 72
  5
  0
ENDBLK
  8
0
  0
BLOCK
  8
0
  2
CADWIN-G33
 70
    0
 10
0.0
 20
0.0
  0
LINE
  8
192
  6
CONTINUOUS
 62
     7
 10
-222.23191189240364
 20
-131.59429779746841
 11
-263.42425413281478
 21
-137.53530783827284
  0
LINE
  8
192
  6
CONTINUOUS
 62
     7
 10
-222.23191189240364
 20
-131.59429779746841
 11
-227.22095941090919
 21
-131.26353374547102
  0
LINE
  8
192
  6
CONTINUOUS
 62
     7
 10
-222.23191189240364
 20
-131.59429779746841
 11
-226.92416745105703
 21
-133.32135824003731
  0
CIRCLE
  8
192
  6
CONTINUOUS
 62
     7
 10
-269.0266742887373
 20
-138.34332293498392
 40
 5.6603886792339626
  0
TEXT
  8
192
  6
CONTINUOUS
 62
     56
 10
-273.82667428873731
 20
-141.34332293498392
 11
-264.22667428873729
 21
-141.34332293498392
 40
 6
 41
 0.8
  1
18
 50
 0
 72
  5
  0
ENDBLK
  8
0
  0
BLOCK
  8
0
  2
CADWIN-G34
 70
    0
 10
0.0
 20
0.0
  0
LINE
  8
192
  6
CONTINUOUS
 62
     7
 10
-73.382911392405148
 20
-23.333534282009708
 11
-62.381196436635683
 21
-16.692391655698529
  0
LINE
  8
192
  6
CONTINUOUS
 62
     7
 10
-73.382911392405148
 20
-23.333534282009708
 11
-68.658655851676301
 21
-21.696033263416819
  0
LINE
  8
192
  6
CONTINUOUS
 62
     7
 10
-73.382911392405148
 20
-23.333534282009708
 11
-69.733120869765088
 21
-19.916074824920742
  0
CIRCLE
  8
192
  6
CONTINUOUS
 62
     7
 10
-57.535265669038104
 20
-13.767164314849433
 40
 5.6603886792339626
  0
TEXT
  8
192
  6
CONTINUOUS
 62
     56
 10
-62.335265669038108
 20
-16.767164314849431
 11
-52.7352656690381
 21
-16.767164314849431
 40
 6
 41
 0.8
  1
16
 50
 0
 72
  5
  0
ENDBLK
  8
0
  0
BLOCK
  8
0
  2
CADWIN-G35
 70
    0
 10
0.0
 20
0.0
  0
LINE
  8
192
  6
CONTINUOUS
 62
     7
 10
-130.77717083315309
 20
 136.84018987341767
 11
-136.14076399636269
 21
 75.505289937538265
  0
LINE
  8
192
  6
CONTINUOUS
 62
     7
 10
-130.77717083315309
 20
 136.84018987341767
 11
-132.23883476064208
 21
 132.05860660392653
  0
LINE
  8
192
  6
CONTINUOUS
 62
     7
 10
-130.77717083315309
 20
 136.84018987341767
 11
-130.16762214709047
 21
 131.87748391806232
  0
CIRCLE
  8
192
  6
CONTINUOUS
 62
     7
 10
-136.63386988982438
 20
 69.866420673418617
 40
 5.6603886792339626
  0
TEXT
  8
192
  6
CONTINUOUS
 62
     56
 10
-141.43386988982439
 20
 66.866420673418617
 11
-131.83386988982437
 21
 66.866420673418617
 40
 6
 41
 0.8
  1
17
 50
 0
 72
  5
  0
ENDBLK
  8
0
  0
BLOCK
  8
0
  2
CADWIN-G36
 70
    0
 10
0.0
 20
0.0
  0
LINE
  8
192
  6
CONTINUOUS
 62
     7
 10
-318.17088548919224
 20
-49.151613263115493
 11
-333.8690277925424
 21
-36.581272342492262
  0
LINE
  8
192
  6
CONTINUOUS
 62
     7
 10
-318.17088548919224
 20
-49.151613263115493
 11
-321.33872708522796
 21
-45.283179520316516
  0
LINE
  8
192
  6
CONTINUOUS
 62
     7
 10
-318.17088548919224
 20
-49.151613263115493
 11
-322.6382865442892
 21
-46.906100445757581
  0
CIRCLE
  8
192
  6
CONTINUOUS
 62
     7
 10
-338.28742446736459
 20
-33.043226155128394
 40
 5.6603886792339626
  0
TEXT
  8
192
  6
CONTINUOUS
 62
     56
 10
-343.0874244673646
 20
-36.043226155128394
 11
-333.48742446736458
 21
-36.043226155128394
 40
 6
 41
 0.8
  1
10
 50
 0
 72
  5
  0
ENDBLK
  8
0
  0
ENDSEC
  0
SECTION
  2
ENTITIES
  0
LINE
  8
0
  6
CONTINUOUS
 62
     176
 10
-57.56645569620261
 20
-62.294303797468388
 11
-232.38291139240511
 21
-62.294303797468366
  0
LINE
  8
0
  6
CENTER
 62
     7
 10
-232.38291139240511
 20
-4.8943037974683712
 11
-232.38291139240511
 21
-119.69430379746836
  0
LINE
  8
0
  6
CONTINUOUS
 62
     3
 10
-260.38291139240516
 20
-22.294303797468356
 11
-260.38291139240516
 21
-30.294303797468359
  0
LINE
  8
0
  6
CONTINUOUS
 62
     3
 10
-168.38291139240513
 20
-22.29430379746837
 11
-168.38291139240513
 21
-31.294303797468377
  0
LINE
  8
0
  6
CONTINUOUS
 62
     3
 10
-136.38291139240516
 20
-29.294303797468377
 11
-128.38291139240513
 21
-29.294303797468377
  0
LINE
  8
0
  6
CONTINUOUS
 62
     3
 10
-136.38291139240516
 20
-95.294303797468373
 11
-128.38291139240513
 21
-95.294303797468373
  0
LINE
  8
0
  6
CONTINUOUS
 62
     3
 10
-138.38291139240516
 20
-93.294303797468373
 11
-204.63403754138193
 21
-93.294303797468373
  0
LINE
  8
0
  6
CONTINUOUS
 62
     3
 10
-138.38291139240516
 20
-31.294303797468377
 11
-205.55009566240767
 21
-31.294303797468377
  0
LINE
  8
0
  6
CONTINUOUS
 62
     3
 10
-174.38291139240513
 20
-16.294303797468363
 11
-254.38291139240513
 21
-16.294303797468363
  0
ARC
  8
0
  6
CONTINUOUS
 62
     3
 10
-254.38291139240513
 20
-22.294303797468356
 40
 6
 50
 90.000001535234517
 51
 180.00000307046903
  0
ARC
  8
0
  6
CONTINUOUS
 62
     3
 10
-174.38291139240513
 20
-22.29430379746837
 40
 6
 50
 0
 51
 90.000001535234517
  0
LINE
  8
0
  6
CONTINUOUS
 62
     3
 10
-260.38291139240516
 20
-102.29430379746839
 11
-260.38291139240516
 21
-92.244262061212254
  0
ARC
  8
0
  6
CONTINUOUS
 62
     3
 10
-254.38291139240513
 20
-102.29430379746839
 40
 6
 50
 180.00000307046903
 51
-90.000001535234532
  0
LINE
  8
0
  6
CONTINUOUS
 62
     3
 10
-276.38291139240516
 20
-30.294303797468359
 11
-258.01492262835768
 21
-30.294303797468359
  0
LINE
  8
0
  6
CONTINUOUS
 62
     3
 10
-274.04824470440451
 20
-72.294303797468359
 11
-276.38291139240516
 21
-72.294303797468359
  0
ARC
  8
0
  6
CONTINUOUS
 62
     3
 10
-274.04824470440451
 20
-74.794303797468359
 40
 2.5
 50
 16.699749165129603
 51
 90.000001535234517
  0
LINE
  8
0
  6
CONTINUOUS
 62
     3
 10
-138.38291139240516
 20
-93.294303797468373
 11
-136.38291139240516
 21
-95.294303797468373
  0
LINE
  8
0
  6
CONTINUOUS
 62
     3
 10
-138.38291139240516
 20
-31.294303797468377
 11
-136.38291139240516
 21
-29.294303797468377
  0
LINE
  8
0
  6
CONTINUOUS
 62
     3
 10
-162.38291139240513
 20
-108.29430379746836
 11
-162.38291139240513
 21
-117.29430379746836
  0
LINE
  8
0
  6
CONTINUOUS
 62
     3
 10
-242.38291139240513
 20
-105.77993360778616
 11
-242.38291139240513
 21
-117.29430379746836
  0
LINE
  8
0
  6
CONTINUOUS
 62
     3
 10
-242.38291139240513
 20
-117.29430379746836
 11
-162.38291139240513
 21
-117.29430379746836
  0
ARC
  8
0
  6
CONTINUOUS
 62
     3
 10
-247.38291139240513
 20
-105.77993360778616
 40
 5
 50
 0
 51
 70.968560285477665
  0
LINE
  8
0
  6
CONTINUOUS
 62
     3
 10
-168.38291139240516
 20
-100.29430379746836
 11
-162.38291139240513
 21
-108.29430379746836
  0
LINE
  8
0
  6
CENTER
 62
     7
 10
-261.38291139240516
 20
-46.294303797468359
 11
-261.38291139240516
 21
-56.294303797468359
  0
ARC
  8
0
  6
CONTINUOUS
 62
     3
 10
-187.48302275111783
 20
-52.294303797468373
 40
 5
 50
-167.4441450577032
 51
-90.000001535234517
  0
ARC
  8
0
  6
DASHED2
 62
     2
 10
-174.38291139240516
 20
-102.29430379746839
 40
 6
 50
-90.000001535234532
 51
 0
  0
LINE
  8
0
  6
CONTINUOUS
 62
     3
 10
-242.38291139240513
 20
-108.29430379746837
 11
-254.38291139240513
 21
-108.29430379746837
  0
LINE
  8
0
  6
DASHED2
 62
     2
 10
-174.38291139240516
 20
-108.29430379746839
 11
-242.38291139240513
 21
-108.29430379746837
  0
LINE
  8
0
  6
CONTINUOUS
 62
     3
 10
-168.38291139240516
 20
-100.29430379746836
 11
-168.38291139240513
 21
-93.294303797468373
  0
LINE
  8
0
  6
DASHED2
 62
     2
 10
-168.38291139240516
 20
-100.29430379746836
 11
-168.38291139240516
 21
-102.29430379746839
  0
LINE
  8
0
  6
CENTER
 62
     7
 10
-177.38291139240513
 20
-112.4448180379747
 11
-177.38291139240513
 21
-125.28105221518992
  0
LINE
  8
0
  6
CENTER
 62
     7
 10
-227.38291139240513
 20
-112.4448180379747
 11
-227.38291139240513
 21
-125.28105221518992
  0
LINE
  8
0
  6
CONTINUOUS
 62
     3
 10
-128.38291139240513
 20
-94.294303797468373
 11
-121.38291139240515
 21
-94.294303797468373
  0
LINE
  8
0
  6
CONTINUOUS
 62
     3
 10
-128.38291139240513
 20
-30.294303797468377
 11
-121.38291139240515
 21
-30.294303797468377
  0
LINE
  8
0
  6
CONTINUOUS
 62
     3
 10
-121.38291139240515
 20
-35.294303797468373
 11
-119.38291139240515
 21
-35.294303797468373
  0
LINE
  8
0
  6
CONTINUOUS
 62
     3
 10
-121.38291139240515
 20
-89.294303797468373
 11
-119.38291139240515
 21
-89.294303797468373
  0
LINE
  8
0
  6
CONTINUOUS
 62
     3
 10
-119.38291139240515
 20
-86.294303797468373
 11
-116.38291139240515
 21
-86.294303797468373
  0
LINE
  8
0
  6
CONTINUOUS
 62
     3
 10
-79.382911392405148
 20
-18.294303797468391
 11
-79.382911392405148
 21
-106.29430379746839
  0
LINE
  8
0
  6
CONTINUOUS
 62
     3
 10
-118.38291139240515
 20
-17.294303797468391
 11
-80.382911392405148
 21
-17.294303797468391
  0
LINE
  8
0
  6
CONTINUOUS
 62
     3
 10
-136.38291139240516
 20
 114.84018987341769
 11
-128.38291139240513
 21
 114.84018987341769
  0
LINE
  8
0
  6
CONTINUOUS
 62
     3
 10
-138.38291139240516
 20
 178.84018987341767
 11
-136.38291139240516
 21
 180.84018987341767
  0
LINE
  8
0
  6
CONTINUOUS
 62
     3
 10
-138.38291139240516
 20
 178.84018987341767
 11
-165.88291139240513
 21
 178.84018987341767
  0
LINE
  8
0
  6
CONTINUOUS
 62
     3
 10
-138.38291139240516
 20
 116.84018987341767
 11
-209.38291139240511
 21
 116.8401898734177
  0
LINE
  8
0
  6
CONTINUOUS
 62
     3
 10
-209.38291139240511
 20
 116.8401898734177
 11
-213.38291139240511
 21
 111.8401898734177
  0
LINE
  8
0
  6
CONTINUOUS
 62
     3
 10
-213.38291139240511
 20
 111.8401898734177
 11
-251.38291139240513
 21
 111.8401898734177
  0
LINE
  8
0
  6
CONTINUOUS
 62
     3
 10
-255.38291139240513
 20
 116.8401898734177
 11
-251.38291139240513
 21
 111.8401898734177
  0
LINE
  8
0
  6
CONTINUOUS
 62
     3
 10
-276.38291139240516
 20
 158.8401898734177
 11
-276.38291139240516
 21
 116.8401898734177
  0
LINE
  8
0
  6
CONTINUOUS
 62
     3
 10
-260.38291139240516
 20
 202.8401898734177
 11
-168.38291139240513
 21
 202.84018987341767
  0
LINE
  8
0
  6
CONTINUOUS
 62
     3
 10
-168.38291139240513
 20
 202.84018987341767
 11
-168.38291139240513
 21
 181.34018987341767
  0
LINE
  8
0
  6
CONTINUOUS
 62
     3
 10
-260.38291139240516
 20
 202.8401898734177
 11
-260.38291139240516
 21
 181.3401898734177
  0
ARC
  8
0
  6
CONTINUOUS
 62
     3
 10
-165.88291139240513
 20
 181.34018987341767
 40
 2.5
 50
 180.00000307046903
 51
-90.000001535234517
  0
ARC
  8
0
  6
CONTINUOUS
 62
     3
 10
-170.88291139240513
 20
 181.34018987341767
 40
 2.5
 50
-90.000001535234517
 51
 0
  0
LINE
  8
0
  6
CONTINUOUS
 62
     3
 10
-273.38291139240511
 20
 173.8401898734177
 11
-273.38291139240511
 21
 161.3401898734177
  0
LINE
  8
0
  6
CENTER
 62
     7
 10
-332.06326023536394
 20
 137.8401898734177
 11
-207.38291139240511
 21
 137.8401898734177
  0
LINE
  8
0
  6
CONTINUOUS
 62
     3
 10
-276.38291139240516
 20
 158.8401898734177
 11
-275.88291139240511
 21
 158.8401898734177
  0
ARC
  8
0
  6
CONTINUOUS
 62
     3
 10
-268.38291139240511
 20
 173.8401898734177
 40
 5
 50
 90.000001535234517
 51
 180.00000307046903
  0
ARC
  8
0
  6
CONTINUOUS
 62
     3
 10
-275.88291139240511
 20
 161.3401898734177
 40
 2.5
 50
-90.000001535234517
 51
 0
  0
LINE
  8
0
  6
CONTINUOUS
 62
     3
 10
-268.38291135468069
 20
 178.8401898734177
 11
-262.88291139240516
 21
 178.8401898734177
  0
ARC
  8
0
  6
CONTINUOUS
 62
     3
 10
-262.88291139240516
 20
 181.3401898734177
 40
 2.5
 50
-90.000001535234517
 51
 0
  0
LINE
  8
0
  6
CONTINUOUS
 62
     3
 10
-128.38291139240513
 20
 115.84018987341767
 11
-121.38291139240515
 21
 115.84018987341767
  0
LINE
  8
0
  6
CONTINUOUS
 62
     3
 10
-121.38291139240515
 20
 120.84018987341767
 11
-119.38291139240515
 21
 120.84018987341767
  0
LINE
  8
0
  6
CONTINUOUS
 62
     3
 10
-119.38291139240515
 20
 123.84018987341767
 11
-116.38291139240515
 21
 123.84018987341767
  0
LINE
  8
0
  6
CONTINUOUS
 62
     3
 10
-80.382911392405148
 20
 102.8401898734177
 11
-118.38291139240515
 21
 102.8401898734177
  0
LINE
  8
0
  6
CENTER
 62
     7
 10
-99.382911392405148
 20
 213.11135284810126
 11
-99.382911392405134
 21
 82.049050632911388
  0
LINE
  8
0
  6
CONTINUOUS
 62
     3
 10
-135.38291139240516
 20
-86.294303797468373
 11
-129.38291139240513
 21
-86.294303797468373
  0
LINE
  8
0
  6
CONTINUOUS
 62
     3
 10
-128.38291139240513
 20
-29.294303797468377
 11
-128.38291139240513
 21
-62.29430379746838
  0
LINE
  8
0
  6
CONTINUOUS
 62
     3
 10
-128.38291139240513
 20
-87.294303797468373
 11
-128.38291139240513
 21
-95.294303797468416
  0
LINE
  8
0
  6
CONTINUOUS
 62
     3
 10
-136.38291139240516
 20
-29.294303797468377
 11
-136.38291139240516
 21
-62.29430379746838
  0
LINE
  8
0
  6
CONTINUOUS
 62
     3
 10
-136.38291139240516
 20
-87.294303797468373
 11
-135.38291139240516
 21
-86.294303797468373
  0
LINE
  8
0
  6
CONTINUOUS
 62
     3
 10
-128.38291139240513
 20
-87.294303797468373
 11
-129.38291139240513
 21
-86.294303797468373
  0
LINE
  8
0
  6
CONTINUOUS
 62
     3
 10
-203.7472692658524
 20
-87.294303797468373
 11
-136.38291139240516
 21
-87.294303797468373
  0
ARC
  8
0
  6
CONTINUOUS
 62
     3
 10
-204.63403754138193
 20
-95.794303797468373
 40
 2.5
 50
 90.000001535234517
 51
 129.63579049807933
  0
ARC
  8
0
  6
CONTINUOUS
 62
     3
 10
-203.7472692658524
 20
-98.294303797468345
 40
 11
 50
 90.000001535234517
 51
 128.4999526012208
  0
ARC
  8
0
  6
CONTINUOUS
 62
     3
 10
-232.38291139240511
 20
-62.294303797468366
 40
 35
 50
 180.00000307046903
 51
-51.500050469248258
  0
LINE
  8
0
  6
CENTER
 62
     7
 10
-287.48908451778368
 20
-65.294303797468359
 11
-267.25410294073049
 21
-65.294303797468359
  0
ARC
  8
0
  6
CONTINUOUS
 62
     3
 10
-232.38291139240511
 20
-62.294303797468366
 40
 41
 50
 12.555858012765823
 51
 153.95835267029605
  0
ARC
  8
0
  6
CONTINUOUS
 62
     3
 10
-232.38291139240511
 20
-62.294303797468366
 40
 41
 50
-163.30025390533942
 51
-50.364212572390016
  0
LINE
  8
0
  6
CONTINUOUS
 62
     3
 10
-279.58291139240509
 20
-67.794303797468359
 11
-266.94806725781388
 21
-67.794303797468359
  0
LINE
  8
0
  6
CONTINUOUS
 62
     3
 10
-279.58291139240509
 20
-62.794303797468366
 11
-267.37933978159936
 21
-62.794303797468366
  0
LINE
  8
0
  6
CONTINUOUS
 62
     3
 10
-279.58291139240509
 20
-67.794303797468359
 11
-282.38291139240516
 21
-70.294303797468359
  0
LINE
  8
0
  6
CONTINUOUS
 62
     3
 10
-279.58291139240509
 20
-62.794303797468366
 11
-282.38291139240516
 21
-60.294303797468366
  0
ARC
  8
0
  6
PHANTOM
 62
     7
 10
-232.38291139240511
 20
-62.294303797468366
 40
 23
 50
 0
 51
 180.00000307046903
  0
ARC
  8
0
  6
PHANTOM
 62
     7
 10
-232.38291139240511
 20
-62.294303797468366
 40
 18
 50
 0
 51
 180.00000307046903
  0
LINE
  8
0
  6
CONTINUOUS
 62
     3
 10
-207.38291139240511
 20
-62.29430379746838
 11
-207.38291139240511
 21
-80.794303797468373
  0
LINE
  8
0
  6
CONTINUOUS
 62
     3
 10
-206.88291139240511
 20
-81.294303797468373
 11
-198.88291139240511
 21
-81.294303797468373
  0
LINE
  8
0
  6
CONTINUOUS
 62
     3
 10
-198.38291139240511
 20
-75.294303797468373
 11
-189.88291139240511
 21
-75.294303797468373
  0
LINE
  8
0
  6
CONTINUOUS
 62
     3
 10
-189.38291139240511
 20
-68.794303797468373
 11
-189.38291139240511
 21
-74.794303797468373
  0
LINE
  8
0
  6
CONTINUOUS
 62
     3
 10
-198.88291139240511
 20
-81.294303797468373
 11
-198.38291139240511
 21
-80.794303797468373
  0
LINE
  8
0
  6
CONTINUOUS
 62
     3
 10
-207.38291139240511
 20
-80.794303797468373
 11
-206.88291139240511
 21
-81.294303797468373
  0
LINE
  8
0
  6
CONTINUOUS
 62
     3
 10
-189.88291139240511
 20
-75.294303797468373
 11
-189.38291139240511
 21
-74.794303797468373
  0
LINE
  8
0
  6
CONTINUOUS
 62
     3
 10
-198.38291139240511
 20
-75.294303797468373
 11
-198.38291139240511
 21
-80.794303797468373
  0
LINE
  8
0
  6
CONTINUOUS
 62
     3
 10
-200.38291139240511
 20
-62.29430379746838
 11
-200.38291139240511
 21
-68.294303797468373
  0
LINE
  8
0
  6
CONTINUOUS
 62
     3
 10
-200.38291139240511
 20
-67.294303797468373
 11
-199.38291139240511
 21
-68.294303797468373
  0
LINE
  8
0
  6
CONTINUOUS
 62
     3
 10
-200.38291139240511
 20
-68.294303797468373
 11
-121.38291139240509
 21
-68.294303797468373
  0
LINE
  8
0
  6
CONTINUOUS
 62
     3
 10
-120.88291139240509
 20
-67.794303797468373
 11
-121.38291139240509
 21
-68.294303797468373
  0
LINE
  8
0
  6
CONTINUOUS
 62
     3
 10
-116.38291139240515
 20
-72.794303797468373
 11
-116.38291139240515
 21
-62.29430379746838
  0
LINE
  8
0
  6
CONTINUOUS
 62
     3
 10
-118.38291139240515
 20
-74.794303797468373
 11
-120.88291139240515
 21
-74.794303797468373
  0
LINE
  8
0
  6
CONTINUOUS
 62
     3
 10
-120.88291139240515
 20
-74.794303797468373
 11
-120.88291139240509
 21
-62.29430379746838
  0
LINE
  8
0
  6
CONTINUOUS
 62
     3
 10
-114.28291139240514
 20
-66.294303797468373
 11
-105.38291139240513
 21
-66.294303797468373
  0
ARC
  8
0
  6
CONTINUOUS
 62
     3
 10
-118.38291139240515
 20
-72.794303797468373
 40
 2
 50
-90.000001535234532
 51
-0.000000000000007
  0
LINE
  8
0
  6
CONTINUOUS
 62
     3
 10
-121.88291139240515
 20
-66.294303797468373
 11
-121.88291139240515
 21
-62.29430379746838
  0
LINE
  8
0
  6
CONTINUOUS
 62
     3
 10
-121.88291139240515
 20
-66.294303797468373
 11
-120.88291139240515
 21
-66.294303797468373
  0
LINE
  8
0
  6
CONTINUOUS
 62
     3
 10
-132.88291139240511
 20
-65.294303797468359
 11
-121.88291139240515
 21
-65.294303797468373
  0
LINE
  8
0
  6
CONTINUOUS
 62
     3
 10
-113.78291139240514
 20
-71.294303797468359
 11
-113.78291139240514
 21
-66.294303797468373
  0
ARC
  8
0
  6
CONTINUOUS
 62
     3
 10
-111.78291139240514
 20
-71.294303797468359
 40
 2
 50
 180.00000307046903
 51
-90.000001535234532
  0
LINE
  8
0
  6
CONTINUOUS
 62
     3
 10
-96.78291139240514
 20
-71.794303797468373
 11
-96.78291139240514
 21
-62.294303797468388
  0
LINE
  8
0
  6
CONTINUOUS
 62
     3
 10
-96.78291139240514
 20
-71.794303797468373
 11
-104.78291139240514
 21
-71.794303797468359
  0
LINE
  8
0
  6
CONTINUOUS
 62
     3
 10
-104.78291139240514
 20
-73.294303797468359
 11
-111.78291139240514
 21
-73.294303797468359
  0
LINE
  8
0
  6
CONTINUOUS
 62
     3
 10
-104.78291139240514
 20
-73.294303797468359
 11
-104.78291139240514
 21
-71.794303797468345
  0
LINE
  8
0
  6
CONTINUOUS
 62
     3
 10
-192.33291139240509
 20
-68.294303797468373
 11
-192.33291139240509
 21
-75.294303797468373
  0
LINE
  8
0
  6
CONTINUOUS
 62
     3
 10
-196.43291139240512
 20
-68.294303797468373
 11
-196.43291139240512
 21
-75.294303797468373
  0
LINE
  8
0
  6
CONTINUOUS
 62
     3
 10
-189.88291139240511
 20
-68.294303797468373
 11
-189.38291139240511
 21
-68.794303797468373
  0
LINE
  8
0
  6
CONTINUOUS
 62
     3
 10
-120.88291139240515
 20
-66.294303797468373
 11
-126.88291139240515
 21
-66.294303797468373
  0
LINE
  8
0
  6
CONTINUOUS
 62
     3
 10
-126.88291139240515
 20
-66.294303797468373
 11
-126.88291139240515
 21
-65.294303797468359
  0
LINE
  8
0
  6
CONTINUOUS
 62
     3
 10
-132.88291139240511
 20
-65.294303797468359
 11
-142.88291139240513
 21
-65.294303797468359
  0
LINE
  8
0
  6
CONTINUOUS
 62
     3
 10
-142.88291139240513
 20
-62.294303797468366
 11
-142.88291139240513
 21
-65.294303797468359
  0
LINE
  8
0
  6
CONTINUOUS
 62
     3
 10
-116.28291139240514
 20
-86.294303797468373
 11
-114.28291139240514
 21
-86.294303797468373
  0
LINE
  8
0
  6
CONTINUOUS
 62
     3
 10
-116.28291139240514
 20
-62.29430379746838
 11
-116.28291139240514
 21
-86.294303797468373
  0
LINE
  8
0
  6
CONTINUOUS
 62
     3
 10
-114.28291139240514
 20
-86.294303797468373
 11
-114.28291139240514
 21
-62.29430379746838
  0
LINE
  8
0
  6
CONTINUOUS
 62
     3
 10
-116.38291139240515
 20
-62.29430379746838
 11
-116.38291139240515
 21
-86.294303797468373
  0
LINE
  8
0
  6
CONTINUOUS
 62
     3
 10
-116.38291139240515
 20
-86.294303797468373
 11
-116.28291139240514
 21
-86.294303797468373
  0
LINE
  8
0
  6
CONTINUOUS
 62
     3
 10
-134.38291139240513
 20
-85.294303797468373
 11
-134.38291139240513
 21
-76.294303797468373
  0
LINE
  8
0
  6
CONTINUOUS
 62
     3
 10
-134.38291139240513
 20
-85.294303797468373
 11
-133.38291139240513
 21
-86.294303797468373
  0
LINE
  8
0
  6
CONTINUOUS
 62
     3
 10
-113.78291139240514
 20
-66.544303797468388
 11
-109.78291139240514
 21
-66.544303797468388
  0
LINE
  8
0
  6
CONTINUOUS
 62
     3
 10
-109.78291139240514
 20
-66.294303797468373
 11
-109.78291139240514
 21
-66.544303797468388
  0
LINE
  8
0
  6
CONTINUOUS
 62
     3
 10
-100.78291139240514
 20
-62.294303797468388
 11
-100.78291139240514
 21
-66.294303797468388
  0
LINE
  8
0
  6
CONTINUOUS
 62
     3
 10
-109.78291139240514
 20
-66.294303797468388
 11
-100.78291139240514
 21
-66.294303797468388
  0
LINE
  8
0
  6
CONTINUOUS
 62
     3
 10
-113.78291139240514
 20
-69.794303797468388
 11
-114.03291139240514
 21
-69.794303797468388
  0
LINE
  8
0
  6
CONTINUOUS
 62
     3
 10
-114.03291139240514
 20
-68.794303797468388
 11
-113.78291139240514
 21
-68.794303797468388
  0
LINE
  8
0
  6
CONTINUOUS
 62
     3
 10
-114.28291139240514
 20
-69.044303797468388
 11
-114.28291139240514
 21
-69.544303797468388
  0
ARC
  8
0
  6
CONTINUOUS
 62
     3
 10
-114.03291139240514
 20
-69.044303797468388
 40
 0.25
 50
 90.000001535234517
 51
 180.00000307046903
  0
ARC
  8
0
  6
CONTINUOUS
 62
     3
 10
-114.03291139240514
 20
-69.544303797468388
 40
 0.25
 50
 180.00000307046903
 51
-90.000001535234517
  0
LINE
  8
0
  6
CONTINUOUS
 62
     3
 10
-119.38291139240515
 20
-18.294303797468391
 11
-119.38291139240515
 21
-62.29430379746838
  0
LINE
  8
0
  6
CONTINUOUS
 62
     3
 10
-105.28291139240514
 20
-66.294303797468373
 11
-105.28291139240514
 21
-62.29430379746838
  0
LINE
  8
0
  6
CONTINUOUS
 62
     3
 10
-121.38291139240515
 20
-30.294303797468377
 11
-121.38291139240515
 21
-62.29430379746838
  0
LINE
  8
0
  6
CONTINUOUS
 62
     3
 10
-121.38291139240515
 20
-89.294303797468373
 11
-121.38291139240515
 21
-94.294303797468373
  0
LINE
  8
0
  6
CONTINUOUS
 62
     3
 10
-128.38291139240513
 20
-94.294303797468373
 11
-128.38291139240513
 21
-87.294303797468373
  0
LINE
  8
0
  6
CONTINUOUS
 62
     3
 10
-133.38291139240513
 20
-86.294303797468373
 11
-129.38291139240513
 21
-86.294303797468373
  0
LINE
  8
0
  6
CONTINUOUS
 62
     3
 10
-119.38291139240515
 20
-86.294303797468373
 11
-119.38291139240515
 21
-106.29430379746839
  0
CIRCLE
  8
0
  6
CONTINUOUS
 62
     56
 10
-136.88291139240513
 20
-79.794303797468359
 40
 2.5
  0
ARC
  8
0
  6
CONTINUOUS
 62
     56
 10
-198.38291139240511
 20
-79.794303797468359
 40
 2.5
 50
-90.000001535234517
 51
 90.000001535234517
  0
CIRCLE
  8
0
  6
CONTINUOUS
 62
     56
 10
-144.57041139240513
 20
-79.794303797468359
 40
 2.5
  0
CIRCLE
  8
0
  6
CONTINUOUS
 62
     56
 10
-152.25791139240513
 20
-79.794303797468359
 40
 2.5
  0
CIRCLE
  8
0
  6
CONTINUOUS
 62
     56
 10
-159.94541139240513
 20
-79.794303797468359
 40
 2.5
  0
CIRCLE
  8
0
  6
CONTINUOUS
 62
     56
 10
-167.63291139240513
 20
-79.794303797468359
 40
 2.5
  0
CIRCLE
  8
0
  6
CONTINUOUS
 62
     56
 10
-175.32041139240513
 20
-79.794303797468359
 40
 2.5
  0
CIRCLE
  8
0
  6
CONTINUOUS
 62
     56
 10
-183.00791139240513
 20
-79.794303797468359
 40
 2.5
  0
CIRCLE
  8
0
  6
CONTINUOUS
 62
     56
 10
-190.69541139240513
 20
-79.794303797468359
 40
 2.5
  0
LINE
  8
0
  6
CENTER
 62
     7
 10
-198.38291139240511
 20
-79.794303797468359
 11
-134.38291139240513
 21
-79.794303797468359
  0
LINE
  8
0
  6
CENTER
 62
     7
 10
-198.38291139240511
 20
-77.294303797468359
 11
-134.38291139240513
 21
-77.294303797468359
  0
LINE
  8
0
  6
CENTER
 62
     7
 10
-134.38291139240513
 20
-82.294303797468359
 11
-198.38291139240511
 21
-82.294303797468359
  0
LINE
  8
0
  6
CONTINUOUS
 62
     56
 10
-198.38291139240511
 20
-77.294303797468359
 11
-198.38291139240511
 21
-82.294303797468359
  0
LINE
  8
0
  6
CONTINUOUS
 62
     3
 10
-114.28291139240514
 20
-78.294303797468388
 11
-109.28291139240514
 21
-78.294303797468388
  0
LINE
  8
0
  6
CONTINUOUS
 62
     3
 10
-109.28291139240514
 20
-74.794303797468388
 11
-92.382911392405134
 21
-74.794303797468388
  0
LINE
  8
0
  6
CONTINUOUS
 62
     3
 10
-92.382911392405134
 20
-62.294303797468388
 11
-92.382911392405134
 21
-74.794303797468388
  0
LINE
  8
0
  6
CONTINUOUS
 62
     3
 10
-109.28291139240514
 20
-74.794303797468388
 11
-109.28291139240514
 21
-78.294303797468388
  0
LINE
  8
0
  6
CONTINUOUS
 62
     3
 10
-96.382911392405148
 20
-74.794303797468388
 11
-96.382911392405148
 21
-81.794303797468388
  0
LINE
  8
0
  6
CONTINUOUS
 62
     3
 10
-102.38291139240513
 20
-74.794303797468388
 11
-102.38291139240513
 21
-81.794303797468388
  0
LINE
  8
0
  6
CONTINUOUS
 62
     3
 10
-88.382911392405148
 20
-87.794303797468388
 11
-88.382911392405148
 21
-107.29430379746839
  0
LINE
  8
0
  6
CONTINUOUS
 62
     3
 10
-110.38291139240513
 20
-87.794303797468388
 11
-110.38291139240513
 21
-107.29430379746839
  0
LINE
  8
0
  6
CONTINUOUS
 62
     3
 10
-105.38291139240516
 20
-81.794303797468388
 11
-93.382911392405163
 21
-81.794303797468388
  0
LINE
  8
0
  6
CONTINUOUS
 62
     3
 10
-118.38291139240515
 20
-107.29430379746839
 11
-119.38291139240515
 21
-106.29430379746839
  0
LINE
  8
0
  6
CONTINUOUS
 62
     3
 10
-79.382911392405148
 20
-106.29430379746839
 11
-80.382911392405148
 21
-107.29430379746839
  0
LINE
  8
0
  6
CONTINUOUS
 62
     3
 10
-79.382911392405148
 20
-18.294303797468391
 11
-80.382911392405148
 21
-17.294303797468391
  0
LINE
  8
0
  6
CONTINUOUS
 62
     3
 10
-118.38291139240515
 20
-17.294303797468391
 11
-119.38291139240515
 21
-18.294303797468391
  0
LINE
  8
0
  6
CONTINUOUS
 62
     3
 10
-89.382911392405148
 20
-105.29430379746839
 11
-88.382911392405148
 21
-107.29430379746839
  0
LINE
  8
0
  6
CONTINUOUS
 62
     3
 10
-109.38291139240513
 20
-105.29430379746839
 11
-110.38291139240513
 21
-107.29430379746837
  0
LINE
  8
0
  6
CONTINUOUS
 62
     3
 10
-93.382911392405163
 20
-98.794303797468416
 11
-105.38291139240515
 21
-98.794303797468416
  0
LINE
  8
0
  6
CONTINUOUS
 62
     3
 10
-105.38291139240515
 20
-98.794303797468416
 11
-105.38291139240515
 21
-109.79430379746842
  0
LINE
  8
0
  6
CONTINUOUS
 62
     3
 10
-93.382911392405163
 20
-109.79430379746842
 11
-93.382911392405163
 21
-98.794303797468416
  0
LINE
  8
0
  6
CONTINUOUS
 62
     3
 10
-242.78291139240514
 20
-117.29430379746836
 11
-161.98291139240513
 21
-117.29430379746836
  0
LINE
  8
0
  6
CONTINUOUS
 62
     3
 10
-247.38291139240513
 20
-121.89430379746837
 11
-247.38291139240513
 21
-187.69430379746834
  0
LINE
  8
0
  6
CONTINUOUS
 62
     3
 10
-157.38291139240513
 20
-121.89430379746837
 11
-157.38291139240513
 21
-187.69430379746834
  0
LINE
  8
0
  6
CONTINUOUS
 62
     3
 10
-249.68291139240515
 20
-189.99430379746835
 11
-267.38291139240516
 21
-189.99430379746835
  0
LINE
  8
0
  6
CONTINUOUS
 62
     3
 10
-155.08291139240515
 20
-189.99430379746835
 11
-137.38291139240516
 21
-189.99430379746835
  0
LINE
  8
0
  6
CONTINUOUS
 62
     3
 10
-159.68291139240512
 20
-121.89430379746837
 11
-159.68291139240512
 21
-187.69430379746834
  0
LINE
  8
0
  6
CONTINUOUS
 62
     3
 10
-242.78291139240508
 20
-119.59430379746837
 11
-161.98291139240513
 21
-119.59430379746837
  0
LINE
  8
0
  6
CONTINUOUS
 62
     3
 10
-245.08291139240515
 20
-121.89430379746837
 11
-245.08291139240515
 21
-187.69430379746834
  0
LINE
  8
0
  6
CONTINUOUS
 62
     3
 10
-267.38291139240516
 20
-192.29430379746836
 11
-249.68291139240509
 21
-192.29430379746836
  0
LINE
  8
0
  6
CONTINUOUS
 62
     3
 10
-155.08291139240512
 20
-192.29430379746836
 11
-137.38291139240516
 21
-192.29430379746836
  0
LINE
  8
0
  6
CONTINUOUS
 62
     3
 10
-137.38291139240516
 20
-189.99430379746835
 11
-137.38291139240516
 21
-192.29430379746836
  0
LINE
  8
0
  6
CONTINUOUS
 62
     3
 10
-267.38291139240516
 20
-189.99430379746835
 11
-267.38291139240516
 21
-192.29430379746836
  0
ARC
  8
0
  6
CONTINUOUS
 62
     3
 10
-155.08291139240515
 20
-187.69430379746834
 40
 2.2999999999999998
 50
 180.00000307046903
 51
-90.000001535234517
  0
ARC
  8
0
  6
CONTINUOUS
 62
     3
 10
-155.08291139240512
 20
-187.69430379746834
 40
 4.5999999999999996
 50
 180.00000307046903
 51
-90.000001535234517
  0
ARC
  8
0
  6
CONTINUOUS
 62
     3
 10
-249.68291139240509
 20
-187.69430379746834
 40
 4.5999999999999996
 50
-90.000001535234517
 51
 0
  0
ARC
  8
0
  6
CONTINUOUS
 62
     3
 10
-249.68291139240515
 20
-187.69430379746834
 40
 2.2999999999999998
 50
-90.000001535234517
 51
 0
  0
ARC
  8
0
  6
CONTINUOUS
 62
     3
 10
-242.78291139240508
 20
-121.89430379746837
 40
 2.2999999999999998
 50
 90.000001535234517
 51
 180.00000307046903
  0
ARC
  8
0
  6
CONTINUOUS
 62
     3
 10
-161.98291139240513
 20
-121.89430379746837
 40
 2.2999999999999998
 50
 0
 51
 90.000001535234517
  0
ARC
  8
0
  6
CONTINUOUS
 62
     3
 10
-242.78291139240514
 20
-121.89430379746837
 40
 4.5999999999999996
 50
 90.000001535234517
 51
 180.00000307046903
  0
ARC
  8
0
  6
CONTINUOUS
 62
     3
 10
-161.98291139240513
 20
-121.89430379746837
 40
 4.5999999999999996
 50
 0
 51
 90.000001535234517
  0
LINE
  8
0
  6
CENTER
 62
     7
 10
-147.38291139240516
 20
-184.00553024871439
 11
-147.38291139240516
 21
-202.66810086407236
  0
LINE
  8
0
  6
CENTER
 62
     7
 10
-257.38291139240516
 20
-184.00553024871436
 11
-257.38291139240516
 21
-202.66810086407233
  0
LINE
  8
0
  6
CONTINUOUS
 62
     5
 10
 405.9999999999996
 20
 283.0000000000004
 11
 405.9999999999996
 21
-283.00000000000063
  0
LINE
  8
0
  6
CONTINUOUS
 62
     5
 10
-405.9999999999992
 20
 283.0000000000004
 11
 405.9999999999996
 21
 283.0000000000004
  0
LINE
  8
0
  6
CONTINUOUS
 62
     5
 10
-405.9999999999992
 20
-283.00000000000063
 11
-405.9999999999992
 21
 283.0000000000004
  0
LINE
  8
0
  6
CONTINUOUS
 62
     5
 10
 405.9999999999996
 20
-283.00000000000063
 11
-405.9999999999992
 21
-283.00000000000063
  0
LINE
  8
0
  6
CONTINUOUS
 62
     5
 10
 54.000000000000341
 20
-244.99999800084643
 11
 265.99993200000051
 21
-244.99999800084643
  0
LINE
  8
0
  6
CONTINUOUS
 62
     5
 10
 54.000000000000341
 20
-268.00005800084671
 11
 265.99993200000051
 21
-268.00005800084671
  0
LINE
  8
0
  6
CONTINUOUS
 62
     5
 10
 379.33905082298787
 20
-221.00000000084714
 11
 379.33905082298787
 21
-259.00000000084714
  0
TEXT
  8
0
  6
CONTINUOUS
 62
     5
 10
 60.000000035763122
 20
-266.50002900084689
 11
 100.99998439550433
 21
-266.50002900084689
 40
 6
 41
 0.8
  1
承認
 50
 0
 72
  5
  0
TEXT
  8
0
  6
CONTINUOUS
 62
     5
 10
 112.99998403576316
 20
-266.50002900084689
 11
 153.99996648815574
 21
-266.50002900084689
 40
 6
 41
 0.8
  1
検図
 50
 0
 72
  5
  0
TEXT
  8
0
  6
CONTINUOUS
 62
     5
 10
 165.99996603576321
 20
-266.50002900084689
 11
 206.99995039550441
 21
-266.50002900084689
 40
 6
 41
 0.8
  1
設計
 50
 0
 72
  5
  0
TEXT
  8
0
  6
CONTINUOUS
 62
     5
 10
 218.99995003576325
 20
-266.50002900084689
 11
 259.99993248815588
 21
-266.50002900084689
 40
 6
 41
 0.8
  1
製図
 50
 0
 72
  5
  0
TEXT
  8
0
  6
CONTINUOUS
 62
     5
 10
 281.81977391884396
 20
-277.0214821721089
 11
 319.41977391884399
 21
-277.0214821721089
 40
 8
 41
 0.8
  1
株式会社
 50
 0
 72
  5
  0
TEXT
  8
0
  6
CONTINUOUS
 62
     5
 10
 331.58082948450874
 20
-278.06172229789502
 11
 383.98082948450872
 21
-278.06172229789502
 40
 14
 41
 0.8
  1
神洋
 50
 0
 72
  5
  0
TEXT
  8
0
  6
CONTINUOUS
 62
     5
 10
 75.399966466427173
 20
-230.00001800084686
 11
 244.59996646642719
 21
-230.00001800084686
 40
 6
 41
 0.8
  1
図面名称
 50
 0
 72
  5
  0
TEXT
  8
0
  6
CONTINUOUS
 62
     5
 10
 283.06949075158366
 20
-230.00001800084686
 11
 362.26949075158365
 21
-230.00001800084686
 40
 6
 41
 0.8
  1
図面番号
 50
 0
 72
  5
  0
LINE
  8
0
  6
CONTINUOUS
 62
     5
 10
 54.000000000000341
 20
-221.00000000084714
 11
 405.99999999999972
 21
-221.00000000084714
  0
LINE
  8
0
  6
CONTINUOUS
 62
     5
 10
 54.000000000000341
 20
-233.00003600084659
 11
 405.99999999999972
 21
-233.00003600084659
  0
LINE
  8
0
  6
CONTINUOUS
 62
     5
 10
 54.000000000000341
 20
-259.00000000084714
 11
 405.99999999999972
 21
-259.00000000084714
  0
LINE
  8
0
  6
CONTINUOUS
 62
     5
 10
 265.99993200000051
 20
-221.00000000084714
 11
 265.99993200000051
 21
-283.00000000084714
  0
LINE
  8
0
  6
CONTINUOUS
 62
     5
 10
 265.99993200000051
 20
-248.99998400084715
 11
 405.99999999999972
 21
-248.99998400084715
  0
LINE
  8
0
  6
CONTINUOUS
 62
     5
 10
 212.99995000000047
 20
-259.00000000084714
 11
 212.99995000000047
 21
-283.00000000084714
  0
LINE
  8
0
  6
CONTINUOUS
 62
     5
 10
 106.99998400000038
 20
-259.00000000084714
 11
 106.99998400000038
 21
-283.00000000084714
  0
LINE
  8
0
  6
CONTINUOUS
 62
     5
 10
 159.99996600000043
 20
-259.00000000084714
 11
 159.99996600000043
 21
-283.00000000084714
  0
LINE
  8
0
  6
CONTINUOUS
 62
     5
 10
 54.000000000000341
 20
-283.00000000084714
 11
 54.000000000000341
 21
-221.00000000084714
  0
TEXT
  8
0
  6
CONTINUOUS
 62
     5
 10
 385.33905085875068
 20
-230.00001800084686
 11
 400.00000018431223
 21
-230.00001800084686
 40
 6
 41
 0.8
  1
尺度
 50
 0
 72
  5
  0
TEXT
  8
0
  6
CONTINUOUS
 62
     56
 10
 383.66952541149374
 20
-244.00001000084691
 11
 401.66952541149374
 21
-244.00001000084691
 40
 6
 41
 1
  1
1/2
 50
 0
 72
  5
  0
TEXT
  8
0
  6
CONTINUOUS
 62
     56
 10
 120.99996600000044
 20
-242.00001700084655
 11
 198.99996600000043
 21
-242.00001700084655
 40
 6
 41
 1
  1
ＫＤ型　ダイヤフラムポンプ
 50
 0.000000000000005
 72
  5
  0
TEXT
  8
0
  6
CONTINUOUS
 62
     56
 10
 132.99996600000043
 20
-254.9999990008468
 11
 186.99996600000043
 21
-254.9999990008468
 40
 6
 41
 1
  1
駆動部　構造断面図
 50
 0.000000000000005
 72
  5
  0
TEXT
  8
0
  6
CONTINUOUS
 62
     56
 10
 230.42444086794595
 20
-274.80287840024175
 11
 248.42444086794595
 21
-274.80287840024175
 40
 6
 41
 1
  1
Ｔ．Ｓ
 50
 0
 72
  5
  0
TEXT
  8
0
  6
CONTINUOUS
 62
     56
 10
 214.85332050018525
 20
-282.22744318113041
 11
 262.85332050018525
 21
-282.22744318113041
 40
 6
 41
 1
  1
Ｈ１３．６．１４
 50
 0
 72
  5
  0
LINE
  8
0
  6
CONTINUOUS
 62
     5
 10
-405.9999999999992
 20
 0
 11
-415.9999999999992
 21
 0
  0
INSERT
  8
0
  2
CADWIN-G0
 10
0.0
 20
0.0
  0
LINE
  8
0
  6
CONTINUOUS
 62
     4
 10
-276.38291139240516
 20
-58.294303797468366
 11
-255.26685247340785
 21
-58.294303797468366
  0
LINE
  8
0
  6
CONTINUOUS
 62
     4
 10
-255.26685247340785
 20
-55.794303797468359
 11
-302.38291139240511
 21
-55.794303797468345
  0
LINE
  8
0
  6
CONTINUOUS
 62
     3
 10
-276.38291139240516
 20
-71.294303797468359
 11
-282.38291139240516
 21
-71.294303797468359
  0
LINE
  8
0
  6
CONTINUOUS
 62
     3
 10
-282.38291139240516
 20
-31.294303797468352
 11
-276.38291139240516
 21
-31.294303797468352
  0
LINE
  8
0
  6
CONTINUOUS
 62
     3
 10
-322.88291139240511
 20
-67.794303797468359
 11
-322.88291139240511
 21
-34.794303797468359
  0
LINE
  8
0
  6
CONTINUOUS
 62
     3
 10
-321.88291139240511
 20
-68.794303797468359
 11
-302.88291139240511
 21
-68.794303797468359
  0
LINE
  8
0
  6
CONTINUOUS
 62
     3
 10
-321.88291139240511
 20
-33.794303797468359
 11
-302.88291139240505
 21
-33.794303797468359
  0
LINE
  8
0
  6
CONTINUOUS
 62
     3
 10
-302.88291139240511
 20
-68.794303797468359
 11
-295.08291139240504
 21
-63.294303797468366
  0
LINE
  8
0
  6
CONTINUOUS
 62
     3
 10
-302.88291139240511
 20
-33.794303797468359
 11
-295.08291139240504
 21
-39.294303797468359
  0
LINE
  8
0
  6
CONTINUOUS
 62
     3
 10
-306.88291139240511
 20
-58.794303797468366
 11
-287.88291139240505
 21
-58.794303797468366
  0
LINE
  8
0
  6
CONTINUOUS
 62
     3
 10
-321.88291139240511
 20
-33.794303797468359
 11
-322.88291139240511
 21
-34.794303797468359
  0
LINE
  8
0
  6
CONTINUOUS
 62
     3
 10
-321.88291139240511
 20
-68.794303797468359
 11
-322.88291139240511
 21
-67.794303797468359
  0
LINE
  8
0
  6
CONTINUOUS
 62
     3
 10
-295.08291139240504
 20
-60.794303797468366
 11
-287.88291139240505
 21
-60.794303797468366
  0
LINE
  8
0
  6
CONTINUOUS
 62
     3
 10
-295.08291139240504
 20
-41.794303797468359
 11
-287.88291139240505
 21
-41.794303797468359
  0
LINE
  8
0
  6
CONTINUOUS
 62
     4
 10
-311.88291139240511
 20
-51.294303797468345
 11
-311.88291139240511
 21
-56.794303797468359
  0
LINE
  8
0
  6
CONTINUOUS
 62
     4
 10
-306.88291139240511
 20
-56.794303797468359
 11
-322.88291139240511
 21
-56.794303797468359
  0
LINE
  8
0
  6
CONTINUOUS
 62
     4
 10
-307.88291139240511
 20
-51.294303797468345
 11
-307.88291139240511
 21
-55.294303797468359
  0
LINE
  8
0
  6
CONTINUOUS
 62
     4
 10
-307.88291139240511
 20
-55.294303797468359
 11
-275.88291139240505
 21
-55.294303797468359
  0
LINE
  8
0
  6
CONTINUOUS
 62
     4
 10
-311.88291139240511
 20
-54.544303797468359
 11
-307.88291139240511
 21
-54.544303797468359
  0
LINE
  8
0
  6
CONTINUOUS
 62
     3
 10
-321.88291139240511
 20
-68.794303797468359
 11
-321.88291139240511
 21
-56.794303797468359
  0
LINE
  8
0
  6
CONTINUOUS
 62
     3
 10
-321.88291139240511
 20
-51.294303797468345
 11
-321.88291139240511
 21
-33.794303797468359
  0
LINE
  8
0
  6
CONTINUOUS
 62
     3
 10
-306.88291139240511
 20
-56.794303797468359
 11
-306.88291139240511
 21
-58.794303797468366
  0
LINE
  8
0
  6
CONTINUOUS
 62
     3
 10
-295.08291139240504
 20
-39.294303797468345
 11
-295.08291139240504
 21
-51.294303797468352
  0
LINE
  8
0
  6
CONTINUOUS
 62
     3
 10
-295.08291139240504
 20
-58.794303797468366
 11
-295.08291139240504
 21
-63.294303797468366
  0
LINE
  8
0
  6
CONTINUOUS
 62
     3
 10
-287.88291139240505
 20
-41.794303797468359
 11
-287.88291139240505
 21
-51.294303797468352
  0
LINE
  8
0
  6
CONTINUOUS
 62
     3
 10
-287.88291139240505
 20
-58.294303797468352
 11
-287.88291139240505
 21
-60.794303797468366
  0
LINE
  8
0
  6
CONTINUOUS
 62
     3
 10
-282.38291139240516
 20
-31.294303797468352
 11
-282.38291139240516
 21
-51.294303797468352
  0
LINE
  8
0
  6
CONTINUOUS
 62
     3
 10
-282.38291139240516
 20
-58.294303797468352
 11
-282.38291139240516
 21
-71.294303797468359
  0
LINE
  8
0
  6
CONTINUOUS
 62
     3
 10
-276.38291139240516
 20
-30.294303797468359
 11
-276.38291139240516
 21
-51.294303797468352
  0
LINE
  8
0
  6
CONTINUOUS
 62
     4
 10
-275.88291139240505
 20
-51.294303797468352
 11
-275.88291139240505
 21
-55.294303797468359
  0
LINE
  8
0
  6
CONTINUOUS
 62
     4
 10
-255.26685247340785
 20
-58.294303797468366
 11
-255.26685247340785
 21
-54.544303797468359
  0
LINE
  8
0
  6
CONTINUOUS
 62
     4
 10
-275.88291139240505
 20
-54.544303797468359
 11
-238.20111337492742
 21
-54.544303797468359
  0
ARC
  8
0
  6
CONTINUOUS
 62
     3
 10
-236.7680013571283
 20
-52.919303797468359
 40
 2.1666645
 50
 131.40955938346229
 51
-131.40955938346229
  0
ARC
  8
0
  6
CONTINUOUS
 62
     3
 10
-239.63422539272653
 20
-49.669303797468359
 40
 2.1666645
 50
-48.59044368700674
 51
 48.59044368700674
  0
ARC
  8
0
  6
CONTINUOUS
 62
     3
 10
-239.63422539272653
 20
-52.919303797468359
 40
 2.1666645
 50
-48.59044368700674
 51
 48.59044368700674
  0
LINE
  8
0
  6
CONTINUOUS
 62
     3
 10
-302.38291139240511
 20
-58.294303797468338
 11
-302.38291139240511
 21
-55.294303797468359
  0
LINE
  8
0
  6
CONTINUOUS
 62
     3
 10
-302.38291139240511
 20
-58.294303797468338
 11
-282.38291139240516
 21
-58.294303797468352
  0
LINE
  8
0
  6
CONTINUOUS
 62
     3
 10
-287.88291139240505
 20
-44.294303797468373
 11
-282.38291139240516
 21
-44.294303797468373
  0
LINE
  8
0
  6
CONTINUOUS
 62
     3
 10
-276.38291139240516
 20
-58.294303797468366
 11
-276.38291139240516
 21
-62.794303797468366
  0
LINE
  8
0
  6
CONTINUOUS
 62
     3
 10
-276.38291139240516
 20
-67.794303797468359
 11
-276.38291139240516
 21
-72.294303797468359
  0
LINE
  8
0
  6
CENTER
 62
     7
 10
-287.48908451778368
 20
-37.294303797468359
 11
-278.01202775299839
 21
-37.294303797468359
  0
LINE
  8
0
  6
CENTER
 62
     7
 10
-99.382911392405134
 20
 57.049050632911388
 11
-99.382911392405219
 21
-172.70518450704819
  0
LINE
  8
0
  6
CONTINUOUS
 62
     3
 10
-103.38291139240515
 20
-100.79430379746842
 11
-95.382911392405163
 21
-100.79430379746842
  0
LINE
  8
0
  6
CONTINUOUS
 62
     3
 10
-95.382911392405163
 20
-100.79430379746842
 11
-95.382911392405163
 21
-109.78987619100273
  0
LINE
  8
0
  6
CONTINUOUS
 62
     3
 10
-103.38291139240515
 20
-100.79430379746842
 11
-103.38291139240515
 21
-109.79430379746842
  0
LINE
  8
0
  6
CENTER
 62
     7
 10
-97.382911392405163
 20
-98.953626117427959
 11
-97.382911392405163
 21
-102.67730599129034
  0
LINE
  8
0
  6
CENTER
 62
     7
 10
-101.38291139240515
 20
-98.953626117427959
 11
-101.38291139240515
 21
-102.67730599129034
  0
LINE
  8
0
  6
CONTINUOUS
 62
     3
 10
-95.882911392405163
 20
-98.794303797468416
 11
-95.882911392405163
 21
-100.79430379746842
  0
LINE
  8
0
  6
CONTINUOUS
 62
     3
 10
-98.882911392405148
 20
-100.79430379746842
 11
-98.882911392405148
 21
-98.794303797468416
  0
LINE
  8
0
  6
CONTINUOUS
 62
     3
 10
-99.882911392405148
 20
-100.79430379746842
 11
-99.882911392405148
 21
-98.794303797468416
  0
LINE
  8
0
  6
CONTINUOUS
 62
     3
 10
-102.88291139240515
 20
-98.794303797468416
 11
-102.88291139240515
 21
-100.79430379746842
  0
LINE
  8
0
  6
CONTINUOUS
 62
     3
 10
-105.38291139240516
 20
-113.7943037974684
 11
-93.382911392405163
 21
-113.7943037974684
  0
LINE
  8
0
  6
CONTINUOUS
 62
     3
 10
-93.382911392405163
 20
-110.7943037974684
 11
-93.382911392405163
 21
-113.7943037974684
  0
LINE
  8
0
  6
CONTINUOUS
 62
     3
 10
-105.38291139240516
 20
-110.7943037974684
 11
-105.38291139240516
 21
-113.7943037974684
  0
LINE
  8
0
  6
CONTINUOUS
 62
     3
 10
-95.382911392405163
 20
-107.79873140393407
 11
-95.382911392405163
 21
-110.79873140393407
  0
LINE
  8
0
  6
CONTINUOUS
 62
     3
 10
-103.38291139240516
 20
-107.79873140393407
 11
-103.38291139240516
 21
-110.79873140393407
  0
LINE
  8
0
  6
CONTINUOUS
 62
     3
 10
-105.38291139240516
 20
-110.7943037974684
 11
-103.38291139240516
 21
-110.7943037974684
  0
LINE
  8
0
  6
CONTINUOUS
 62
     3
 10
-95.382911392405163
 20
-110.7943037974684
 11
-93.382911392405163
 21
-110.7943037974684
  0
LINE
  8
0
  6
CONTINUOUS
 62
     3
 10
-97.382911392405163
 20
-107.7943037974684
 11
-97.382911392405163
 21
-112.7943037974684
  0
LINE
  8
0
  6
CONTINUOUS
 62
     3
 10
-101.38291139240516
 20
-112.7943037974684
 11
-101.38291139240516
 21
-107.7943037974684
  0
LINE
  8
0
  6
CONTINUOUS
 62
     3
 10
-102.38291139240516
 20
-113.7943037974684
 11
-101.38291139240516
 21
-112.7943037974684
  0
LINE
  8
0
  6
CONTINUOUS
 62
     3
 10
-96.382911392405163
 20
-113.7943037974684
 11
-97.382911392405163
 21
-112.7943037974684
  0
CIRCLE
  8
0
  6
CONTINUOUS
 62
     3
 10
-99.382911392405163
 20
-106.22146620014013
 40
 2.5443698841892854
  0
LINE
  8
0
  6
CONTINUOUS
 62
     3
 10
-103.38291139240516
 20
-107.7943037974684
 11
-101.38291139240516
 21
-107.7943037974684
  0
LINE
  8
0
  6
CONTINUOUS
 62
     3
 10
-97.382911392405163
 20
-107.7943037974684
 11
-95.382911392405163
 21
-107.7943037974684
  0
LINE
  8
0
  6
CONTINUOUS
 62
     3
 10
-105.38291139240515
 20
-97.794303797468416
 11
-105.38291139240515
 21
-98.794303797468416
  0
LINE
  8
0
  6
CONTINUOUS
 62
     3
 10
-93.382911392405163
 20
-97.794303797468416
 11
-93.382911392405163
 21
-98.794303797468416
  0
LINE
  8
0
  6
CONTINUOUS
 62
     3
 10
-93.382911392405163
 20
-82.794303797468416
 11
-105.38291139240515
 21
-82.794303797468416
  0
LINE
  8
0
  6
CONTINUOUS
 62
     3
 10
-105.38291139240515
 20
-82.794303797468416
 11
-105.38291139240515
 21
-93.79430379746843
  0
LINE
  8
0
  6
CONTINUOUS
 62
     3
 10
-93.382911392405163
 20
-93.79430379746843
 11
-93.382911392405163
 21
-82.794303797468416
  0
LINE
  8
0
  6
CONTINUOUS
 62
     3
 10
-103.38291139240515
 20
-84.794303797468416
 11
-95.382911392405163
 21
-84.794303797468416
  0
LINE
  8
0
  6
CONTINUOUS
 62
     3
 10
-95.382911392405163
 20
-84.794303797468416
 11
-95.382911392405163
 21
-93.789876191002733
  0
LINE
  8
0
  6
CONTINUOUS
 62
     3
 10
-103.38291139240515
 20
-84.794303797468416
 11
-103.38291139240515
 21
-93.79430379746843
  0
LINE
  8
0
  6
CENTER
 62
     7
 10
-97.382911392405163
 20
-82.953626117427973
 11
-97.382911392405163
 21
-86.677305991290353
  0
LINE
  8
0
  6
CENTER
 62
     7
 10
-101.38291139240515
 20
-82.953626117427973
 11
-101.38291139240515
 21
-86.677305991290353
  0
LINE
  8
0
  6
CONTINUOUS
 62
     3
 10
-95.882911392405163
 20
-82.794303797468416
 11
-95.882911392405163
 21
-84.794303797468416
  0
LINE
  8
0
  6
CONTINUOUS
 62
     3
 10
-98.882911392405148
 20
-84.794303797468416
 11
-98.882911392405148
 21
-82.794303797468416
  0
LINE
  8
0
  6
CONTINUOUS
 62
     3
 10
-99.882911392405148
 20
-84.794303797468416
 11
-99.882911392405148
 21
-82.794303797468416
  0
LINE
  8
0
  6
CONTINUOUS
 62
     3
 10
-102.88291139240515
 20
-82.794303797468416
 11
-102.88291139240515
 21
-84.794303797468416
  0
LINE
  8
0
  6
CONTINUOUS
 62
     3
 10
-105.38291139240516
 20
-97.794303797468416
 11
-93.382911392405163
 21
-97.794303797468416
  0
LINE
  8
0
  6
CONTINUOUS
 62
     3
 10
-93.382911392405163
 20
-94.794303797468416
 11
-93.382911392405163
 21
-97.794303797468416
  0
LINE
  8
0
  6
CONTINUOUS
 62
     3
 10
-105.38291139240516
 20
-94.794303797468416
 11
-105.38291139240516
 21
-97.794303797468416
  0
LINE
  8
0
  6
CONTINUOUS
 62
     3
 10
-95.382911392405163
 20
-91.794303797468416
 11
-95.382911392405163
 21
-94.794303797468416
  0
LINE
  8
0
  6
CONTINUOUS
 62
     3
 10
-103.38291139240516
 20
-91.794303797468416
 11
-103.38291139240516
 21
-94.794303797468416
  0
LINE
  8
0
  6
CONTINUOUS
 62
     3
 10
-105.38291139240516
 20
-94.794303797468416
 11
-103.38291139240516
 21
-94.794303797468416
  0
LINE
  8
0
  6
CONTINUOUS
 62
     3
 10
-95.382911392405163
 20
-94.794303797468416
 11
-93.382911392405163
 21
-94.794303797468416
  0
LINE
  8
0
  6
CONTINUOUS
 62
     3
 10
-97.382911392405163
 20
-91.794303797468416
 11
-97.382911392405163
 21
-96.794303797468416
  0
LINE
  8
0
  6
CONTINUOUS
 62
     3
 10
-101.38291139240516
 20
-96.794303797468416
 11
-101.38291139240516
 21
-91.794303797468416
  0
LINE
  8
0
  6
CONTINUOUS
 62
     3
 10
-102.38291139240516
 20
-97.794303797468416
 11
-101.38291139240516
 21
-96.794303797468416
  0
LINE
  8
0
  6
CONTINUOUS
 62
     3
 10
-96.382911392405163
 20
-97.794303797468416
 11
-97.382911392405163
 21
-96.794303797468416
  0
CIRCLE
  8
0
  6
CONTINUOUS
 62
     3
 10
-99.382911392405163
 20
-90.221466200140142
 40
 2.5443698841892854
  0
LINE
  8
0
  6
CONTINUOUS
 62
     3
 10
-103.38291139240516
 20
-91.794303797468416
 11
-101.38291139240516
 21
-91.794303797468416
  0
LINE
  8
0
  6
CONTINUOUS
 62
     3
 10
-97.382911392405163
 20
-91.794303797468416
 11
-95.382911392405163
 21
-91.794303797468416
  0
LINE
  8
0
  6
CONTINUOUS
 62
     3
 10
-109.38291139240516
 20
-110.79430379746839
 11
-109.38291139240516
 21
-88.794303797468388
  0
LINE
  8
0
  6
CONTINUOUS
 62
     3
 10
-89.382911392405163
 20
-110.79430379746842
 11
-89.382911392405163
 21
-88.794303797468416
  0
LINE
  8
0
  6
CONTINUOUS
 62
     3
 10
-114.38291139240518
 20
-124.79430379746839
 11
-114.38291139240518
 21
-111.79430379746839
  0
LINE
  8
0
  6
CONTINUOUS
 62
     3
 10
-84.382911392405163
 20
-111.79430379746842
 11
-84.382911392405163
 21
-124.79430379746839
  0
LINE
  8
0
  6
CONTINUOUS
 62
     3
 10
-96.382911392405163
 20
-146.79430379746839
 11
-96.382911392405163
 21
-114.7943037974684
  0
LINE
  8
0
  6
CONTINUOUS
 62
     3
 10
-102.38291139240516
 20
-114.7943037974684
 11
-102.38291139240516
 21
-146.79430379746839
  0
LINE
  8
0
  6
CONTINUOUS
 62
     3
 10
-90.732911392405157
 20
-125.79430379746839
 11
-85.382911392405163
 21
-125.79430379746839
  0
LINE
  8
0
  6
CONTINUOUS
 62
     3
 10
-113.38291139240518
 20
-125.79430379746839
 11
-108.03291139240517
 21
-125.79430379746839
  0
LINE
  8
0
  6
CONTINUOUS
 62
     3
 10
-85.382911392405163
 20
-110.79430379746842
 11
-89.382911392405163
 21
-110.79430379746842
  0
LINE
  8
0
  6
CONTINUOUS
 62
     3
 10
-109.38291139240516
 20
-110.79430379746839
 11
-113.38291139240518
 21
-110.79430379746839
  0
LINE
  8
0
  6
CONTINUOUS
 62
     3
 10
-93.382911392405163
 20
-88.794303797468416
 11
-93.382911392405163
 21
-114.7943037974684
  0
LINE
  8
0
  6
CONTINUOUS
 62
     3
 10
-93.382911392405163
 20
-114.7943037974684
 11
-96.382911392405163
 21
-114.7943037974684
  0
LINE
  8
0
  6
CONTINUOUS
 62
     3
 10
-102.38291139240516
 20
-114.7943037974684
 11
-105.38291139240516
 21
-114.7943037974684
  0
LINE
  8
0
  6
CONTINUOUS
 62
     3
 10
-89.382911392405163
 20
-88.794303797468416
 11
-93.382911392405163
 21
-88.794303797468416
  0
LINE
  8
0
  6
CONTINUOUS
 62
     3
 10
-105.38291139240516
 20
-88.794303797468388
 11
-109.38291139240516
 21
-88.794303797468388
  0
LINE
  8
0
  6
CONTINUOUS
 62
     3
 10
-105.38291139240516
 20
-114.7943037974684
 11
-93.382911392405163
 21
-114.7943037974684
  0
LINE
  8
0
  6
CONTINUOUS
 62
     3
 10
-80.382911392405148
 20
-107.29430379746839
 11
-88.382911392405148
 21
-107.29430379746839
  0
LINE
  8
0
  6
CONTINUOUS
 62
     3
 10
-110.38291139240515
 20
-107.29430379746839
 11
-118.38291139240515
 21
-107.29430379746839
  0
LINE
  8
0
  6
CONTINUOUS
 62
     3
 10
-93.382911392405163
 20
-87.794303797468388
 11
-93.382911392405163
 21
-81.794303797468388
  0
LINE
  8
0
  6
CONTINUOUS
 62
     3
 10
-105.38291139240516
 20
-87.794303797468388
 11
-105.38291139240516
 21
-81.794303797468388
  0
LINE
  8
0
  6
CONTINUOUS
 62
     3
 10
-93.382911392405163
 20
-87.794303797468388
 11
-88.382911392405148
 21
-87.794303797468388
  0
LINE
  8
0
  6
CONTINUOUS
 62
     3
 10
-105.38291139240516
 20
-87.794303797468388
 11
-110.38291139240513
 21
-87.794303797468388
  0
LINE
  8
0
  6
CONTINUOUS
 62
     3
 10
-84.382911392405163
 20
-12.794303797468345
 11
-84.382911392405163
 21
 0.2056962025316266
  0
LINE
  8
0
  6
CONTINUOUS
 62
     3
 10
-113.38291139240502
 20
 1.2056962025316551
 11
-85.382911392405163
 21
 1.2056962025316551
  0
LINE
  8
0
  6
CONTINUOUS
 62
     3
 10
-85.382911392405163
 20
-13.794303797468345
 11
-113.38291139240502
 21
-13.794303797468345
  0
LINE
  8
0
  6
CONTINUOUS
 62
     3
 10
-90.732911392405157
 20
 10.20569620253162
 11
-90.732911392405157
 21
 1.2056962025316267
  0
LINE
  8
0
  6
CONTINUOUS
 62
     3
 10
-89.382911392405163
 20
-13.794303797468345
 11
-89.382911392405163
 21
-17.294303797468395
  0
LINE
  8
0
  6
CONTINUOUS
 62
     3
 10
-114.38291139240502
 20
-12.79430379746832
 11
-114.38291139240502
 21
 0.2056962025316515
  0
LINE
  8
0
  6
CONTINUOUS
 62
     3
 10
-109.38291139240502
 20
-13.794303797468327
 11
-109.38291139240503
 21
-17.294303797468377
  0
LINE
  8
0
  6
CONTINUOUS
 62
     3
 10
-108.03291139240498
 20
 10.205696202531641
 11
-108.032911392405
 21
 1.2056962025316409
  0
LINE
  8
0
  6
CONTINUOUS
 62
     2
 10
-84.882911392405163
 20
-0.7943037974683733
 11
-84.882911392405163
 21
-11.794303797468345
  0
LINE
  8
0
  6
CONTINUOUS
 62
     2
 10
-85.382911392405163
 20
-1.7943037974683733
 11
-85.382911392405163
 21
-10.794303797468345
  0
LINE
  8
0
  6
CONTINUOUS
 62
     2
 10
-85.882911392405163
 20
-2.7943037974683769
 11
-85.882911392405163
 21
-9.7943037974683449
  0
LINE
  8
0
  6
CONTINUOUS
 62
     2
 10
-86.382911392405163
 20
-3.7943037974683769
 11
-86.382911392405163
 21
-8.7943037974683449
  0
LINE
  8
0
  6
CONTINUOUS
 62
     2
 10
-86.882911392405163
 20
-4.7943037974683769
 11
-86.882911392405163
 21
-8.7943037974683449
  0
LINE
  8
0
  6
CONTINUOUS
 62
     2
 10
-113.88291139240501
 20
-0.7943037974683485
 11
-113.88291139240502
 21
-11.79430379746832
  0
LINE
  8
0
  6
CONTINUOUS
 62
     2
 10
-113.38291139240501
 20
-1.794303797468352
 11
-113.38291139240502
 21
-10.794303797468324
  0
LINE
  8
0
  6
CONTINUOUS
 62
     2
 10
-112.88291139240501
 20
-2.7943037974683556
 11
-112.88291139240502
 21
-9.7943037974683236
  0
LINE
  8
0
  6
CONTINUOUS
 62
     2
 10
-112.38291139240501
 20
-3.7943037974683551
 11
-112.38291139240502
 21
-8.7943037974683236
  0
LINE
  8
0
  6
CONTINUOUS
 62
     2
 10
-111.88291139240501
 20
-4.7943037974683556
 11
-111.88291139240502
 21
-8.7943037974683236
  0
LINE
  8
0
  6
CONTINUOUS
 62
     176
 10
-232.38291139240511
 20
-62.294303797468366
 11
-232.38291139240511
 21
-51.294303797468359
  0
LINE
  8
0
  6
CONTINUOUS
 62
     176
 10
-232.3829114536357
 20
-51.294303797468359
 11
-332.35996835443041
 21
-51.294303797468359
  0
LINE
  8
0
  6
CENTER
 62
     7
 10
-232.38291139240511
 20
-62.294303797468366
 11
-332.35996835443041
 21
-62.294303797468366
  0
TEXT
  8
218
  6
CONTINUOUS
 62
     96
 10
 218.32855083784855
 20
-205.54327365801169
 11
 230.32855083784855
 21
-205.54327365801169
 40
 6
 41
 1
  1
番号
 50
 0.0000000000000495
 72
  5
  0
TEXT
  8
218
  6
CONTINUOUS
 62
     96
 10
 261.39177113087248
 20
-205.54327365801166
 11
 273.39177113087248
 21
-205.54327365801166
 40
 6
 41
 1
  1
名称
 50
 0.0000000000000495
 72
  5
  0
TEXT
  8
218
  6
CONTINUOUS
 62
     96
 10
 340.04769380990058
 20
-205.54327365801169
 11
 352.04769380990058
 21
-205.54327365801169
 40
 6
 41
 1
  1
数量
 50
 0.0000000000000495
 72
  5
  0
TEXT
  8
218
  6
CONTINUOUS
 62
     96
 10
 219.02073686999086
 20
-98.023275548367678
 11
 231.02073686999086
 21
-98.023275548367664
 40
 6
 41
 1
  1
10
 50
 0.0000000000000495
 72
  5
  0
TEXT
  8
218
  6
CONTINUOUS
 62
     96
 10
 219.02073686999086
 20
-87.783275548367556
 11
 231.02073686999086
 21
-87.783275548367541
 40
 6
 41
 1
  1
11
 50
 0.0000000000000495
 72
  5
  0
TEXT
  8
218
  6
CONTINUOUS
 62
     96
 10
 219.02073686999097
 20
-77.543275548367589
 11
 231.02073686999097
 21
-77.543275548367575
 40
 6
 41
 1
  1
12
 50
 0.0000000000000495
 72
  5
  0
TEXT
  8
218
  6
CONTINUOUS
 62
     96
 10
 219.02073686999086
 20
-67.303275548367608
 11
 231.02073686999086
 21
-67.303275548367594
 40
 6
 41
 1
  1
13
 50
 0.0000000000000495
 72
  5
  0
TEXT
  8
218
  6
CONTINUOUS
 62
     96
 10
 219.02073686999069
 20
-57.063275548367585
 11
 231.02073686999071
 21
-57.063275548367578
 40
 6
 41
 1
  1
14
 50
 0.0000000000000495
 72
  5
  0
TEXT
  8
218
  6
CONTINUOUS
 62
     96
 10
 219.02073686999086
 20
-46.82327554836759
 11
 231.02073686999086
 21
-46.823275548367583
 40
 6
 41
 1
  1
15
 50
 0.0000000000000495
 72
  5
  0
TEXT
  8
218
  6
CONTINUOUS
 62
     96
 10
 219.02073686999069
 20
-36.583275548367624
 11
 231.02073686999071
 21
-36.583275548367617
 40
 6
 41
 1
  1
16
 50
 0.0000000000000495
 72
  5
  0
TEXT
  8
218
  6
CONTINUOUS
 62
     96
 10
 219.02073686999069
 20
-26.3432755483676
 11
 231.02073686999071
 21
-26.34327554836759
 40
 6
 41
 1
  1
17
 50
 0.0000000000000495
 72
  5
  0
TEXT
  8
218
  6
CONTINUOUS
 62
     96
 10
 221.58073690813762
 20
-108.26270053650805
 11
 227.58073690813762
 21
-108.26270053650805
 40
 6
 41
 1
  1
9
 50
 0.0000000000000495
 72
  5
  0
TEXT
  8
218
  6
CONTINUOUS
 62
     96
 10
 221.58073690813796
 20
-118.50213675221629
 11
 227.58073690813796
 21
-118.50213675221629
 40
 6
 41
 1
  1
8
 50
 0.0000000000000495
 72
  5
  0
TEXT
  8
218
  6
CONTINUOUS
 62
     96
 10
 221.58073690813796
 20
-128.74155784507832
 11
 227.58073690813796
 21
-128.74155784507832
 40
 6
 41
 1
  1
7
 50
 0.0000000000000495
 72
  5
  0
TEXT
  8
218
  6
CONTINUOUS
 62
     96
 10
 221.58073690813762
 20
-138.98098283321863
 11
 227.58073690813762
 21
-138.98098283321863
 40
 6
 41
 1
  1
6
 50
 0.0000000000000495
 72
  5
  0
TEXT
  8
218
  6
CONTINUOUS
 62
     96
 10
 221.58073690813762
 20
-149.22041148750381
 11
 227.58073690813762
 21
-149.22041148750381
 40
 6
 41
 1
  1
5
 50
 0.0000000000000495
 72
  5
  0
TEXT
  8
218
  6
CONTINUOUS
 62
     96
 10
 221.58073690813762
 20
-159.45983636107727
 11
 227.58073690813762
 21
-159.45983636107727
 40
 6
 41
 1
  1
4
 50
 0.0000000000000495
 72
  5
  0
TEXT
  8
218
  6
CONTINUOUS
 62
     96
 10
 221.58073690813796
 20
-169.69926134921789
 11
 227.58073690813796
 21
-169.69926134921789
 40
 6
 41
 1
  1
3
 50
 0.0000000000000495
 72
  5
  0
TEXT
  8
218
  6
CONTINUOUS
 62
     96
 10
 221.58073690813796
 20
-179.93869378421456
 11
 227.58073690813796
 21
-179.93869378421456
 40
 6
 41
 1
  1
2
 50
 0.0000000000000495
 72
  5
  0
TEXT
  8
218
  6
CONTINUOUS
 62
     96
 10
 221.58073690813796
 20
-190.17812255306646
 11
 227.58073690813796
 21
-190.17812255306646
 40
 6
 41
 1
  1
1
 50
 0.0000000000000495
 72
  5
  0
TEXT
  8
218
  6
CONTINUOUS
 62
     96
 10
 234.77370380129531
 20
-179.94327165308854
 11
 270.77370380129531
 21
-179.94327165308852
 40
 6
 41
 1
  1
クロスヘッド
 50
 0.0000000000000495
 72
  5
  0
TEXT
  8
218
  6
CONTINUOUS
 62
     96
 10
 234.77370380129545
 20
-159.45867854680054
 11
 264.77370380129548
 21
-159.45867854680051
 40
 6
 41
 1
  1
スプリング
 50
 0.0000000000000495
 72
  5
  0
TEXT
  8
218
  6
CONTINUOUS
 62
     96
 10
 234.77370380129571
 20
-149.21923855038031
 11
 270.77370380129571
 21
-149.21923855038028
 40
 6
 41
 1
  1
バックアップ
 50
 0.0000000000000495
 72
  5
  0
TEXT
  8
218
  6
CONTINUOUS
 62
     96
 10
 234.7737038012954
 20
-128.74438375512483
 11
 282.77370380129543
 21
-128.7443837551248
 40
 6
 41
 1
  1
リードスクリュー
 50
 0.0000000000000495
 72
  5
  0
TEXT
  8
218
  6
CONTINUOUS
 62
     96
 10
 234.77370380129531
 20
-118.51072102968325
 11
 258.77370380129531
 21
-118.51072102968322
 40
 6
 41
 1
  1
蝶ボルト
 50
 0.0000000000000662
 72
  5
  0
TEXT
  8
218
  6
CONTINUOUS
 62
     96
 10
 234.77370380129511
 20
-87.786128037962413
 11
 252.77370380129511
 21
-87.786128037962399
 40
 6
 41
 1
  1
ベース
 50
 0.0000000000000495
 72
  5
  0
TEXT
  8
218
  6
CONTINUOUS
 62
     96
 10
 234.77370380129506
 20
-67.30668426083119
 11
 276.77370380129503
 21
-67.306684260831162
 40
 6
 41
 1
  1
スナップリング
 50
 0.0000000000000495
 72
  5
  0
TEXT
  8
218
  6
CONTINUOUS
 62
     96
 10
 234.77370380129571
 20
-138.97981344767291
 11
 282.77370380129571
 21
-138.97981344767288
 40
 6
 41
 1
  1
スクリューガイド
 50
 0.0000000000000495
 72
  5
  0
TEXT
  8
218
  6
CONTINUOUS
 62
     96
 10
 234.77370380129545
 20
-169.69812988535486
 11
 258.77370380129548
 21
-169.69812988535483
 40
 6
 41
 1
  1
フレーム
 50
 0.0000000000000495
 72
  5
  0
TEXT
  8
218
  6
CONTINUOUS
 62
     96
 10
 234.77370380129486
 20
-46.826131933240703
 11
 282.77370380129486
 21
-46.82613193324066
 40
 6
 41
 1
  1
ボールベアリング
 50
 0.0000000000000495
 72
  5
  0
TEXT
  8
218
  6
CONTINUOUS
 62
     96
 10
 234.77370380129506
 20
-36.586116581260484
 11
 276.77370380129503
 21
-36.586116581260448
 40
 6
 41
 1
  1
キャップボルト
 50
 0.0000000000000495
 72
  5
  0
TEXT
  8
220
  6
CONTINUOUS
 62
     96
 10
 234.5908465685205
 20
-26.346139838364632
 11
 270.59084656852048
 21
-26.346139838364632
 40
 6
 41
 1
  1
オイルシール
 50
 0
 72
  5
  0
TEXT
  8
218
  6
CONTINUOUS
 62
     96
 10
 234.77370380129531
 20
-190.18327165308884
 11
 288.77370380129531
 21
-190.18327165308878
 40
 6
 41
 1
  1
クロスヘッドガイド
 50
 0.0000000000000495
 72
  5
  0
TEXT
  8
218
  6
CONTINUOUS
 62
     96
 10
 234.77370380129531
 20
-108.27128481397517
 11
 246.77370380129531
 21
-108.27128481397516
 40
 6
 41
 1
  1
ノブ
 50
 0.0000000000000662
 72
  5
  0
TEXT
  8
218
  6
CONTINUOUS
 62
     96
 10
 234.77370380129511
 20
-77.546703164388745
 11
 282.77370380129508
 21
-77.546703164388703
 40
 6
 41
 1
  1
ボールベアリング
 50
 0.0000000000000495
 72
  5
  0
TEXT
  8
218
  6
CONTINUOUS
 62
     96
 10
 234.77370380129531
 20
-98.031852149844326
 11
 282.77370380129531
 21
-98.031852149844269
 40
 6
 41
 1
  1
セットスクリュー
 50
 0.0000000000000662
 72
  5
  0
TEXT
  8
218
  6
CONTINUOUS
 62
     96
 10
 343.04769380990069
 20
-179.94384288423677
 11
 349.04769380990069
 21
-179.94384288423677
 40
 6
 41
 1
  1
1
 50
 0.0000000000000495
 72
  5
  0
TEXT
  8
218
  6
CONTINUOUS
 62
     96
 10
 343.04769380990069
 20
-169.70441044924024
 11
 349.04769380990069
 21
-169.70441044924024
 40
 6
 41
 1
  1
1
 50
 0.0000000000000495
 72
  5
  0
TEXT
  8
218
  6
CONTINUOUS
 62
     96
 10
 343.04769380990069
 20
-159.46498546109962
 11
 349.04769380990069
 21
-159.46498546109962
 40
 6
 41
 1
  1
1
 50
 0.0000000000000495
 72
  5
  0
TEXT
  8
218
  6
CONTINUOUS
 62
     96
 10
 343.04769380990069
 20
-149.22556058752625
 11
 349.04769380990069
 21
-149.22556058752625
 40
 6
 41
 1
  1
1
 50
 0.0000000000000495
 72
  5
  0
TEXT
  8
218
  6
CONTINUOUS
 62
     96
 10
 343.04769380990069
 20
-138.98613571395279
 11
 349.04769380990069
 21
-138.98613571395279
 40
 6
 41
 1
  1
1
 50
 0.0000000000000495
 72
  5
  0
TEXT
  8
218
  6
CONTINUOUS
 62
     96
 10
 234.77370380129511
 20
-57.067845741251602
 11
 246.77370380129511
 21
-57.067845741251595
 40
 6
 41
 1
  1
カム
 50
 0.0000000000000495
 72
  5
  0
LINE
  8
218
  6
CONTINUOUS
 62
     7
 10
 216.45206737219627
 20
-130.86728230066129
 11
 399.39978902953578
 21
-130.86728230066129
  0
LINE
  8
218
  6
CONTINUOUS
 62
     7
 10
 216.45206737219627
 20
-141.10671095494635
 11
 399.39978902953578
 21
-141.10671095494646
  0
LINE
  8
218
  6
CONTINUOUS
 62
     7
 10
 216.45206737219627
 20
-151.34613582851992
 11
 399.39978902953578
 21
-151.34613582851969
  0
LINE
  8
218
  6
CONTINUOUS
 62
     7
 10
 216.45206737219627
 20
-161.58556081666043
 11
 399.39978902953578
 21
-161.58556081666038
  0
LINE
  8
218
  6
CONTINUOUS
 62
     7
 10
 216.45206737219627
 20
-171.82499325165699
 11
 399.39978902953578
 21
-171.82499325165688
  0
LINE
  8
218
  6
CONTINUOUS
 62
     7
 10
 216.45206737219627
 20
-182.06442202050906
 11
 399.39978902953578
 21
-182.064422020509
  0
LINE
  8
218
  6
CONTINUOUS
 62
     7
 10
 216.45206737219627
 20
-48.951867845525953
 11
 399.39978902953578
 21
-48.951867845525804
  0
LINE
  8
218
  6
CONTINUOUS
 62
     7
 10
 216.45206737219627
 20
-59.19129271909933
 11
 399.39978902953578
 21
-59.191292719099408
  0
LINE
  8
218
  6
CONTINUOUS
 62
     7
 10
 216.45206737219627
 20
-69.43072148795153
 11
 399.39978902953578
 21
-69.430721487951672
  0
LINE
  8
218
  6
CONTINUOUS
 62
     7
 10
 216.45206737219627
 20
-79.670150142236594
 11
 399.39978902953578
 21
-79.670150142236423
  0
LINE
  8
218
  6
CONTINUOUS
 62
     7
 10
 216.45206737219627
 20
-89.909575015810077
 11
 399.39978902953578
 21
-89.909575015810219
  0
LINE
  8
218
  6
CONTINUOUS
 62
     7
 10
 216.45206737219627
 20
-100.14900000395089
 11
 399.39978902953578
 21
-100.14900000395056
  0
LINE
  8
218
  6
CONTINUOUS
 62
     7
 10
 216.45206737219627
 20
-110.38843621965889
 11
 399.39978902953578
 21
-110.38843621965876
  0
LINE
  8
218
  6
CONTINUOUS
 62
     7
 10
 216.45206737219627
 20
-120.62785731252077
 11
 399.39978902953578
 21
-120.62785731252067
  0
LINE
  8
218
  6
CONTINUOUS
 62
     7
 10
 216.45206737219627
 20
-28.473014203100373
 11
 399.39978902953578
 21
-28.473014203100227
  0
LINE
  8
218
  6
CONTINUOUS
 62
     7
 10
 216.45206737219627
 20
-38.712442971952484
 11
 399.39978902953578
 21
-38.712442971952292
  0
LINE
  8
218
  6
CONTINUOUS
 62
     7
 10
 216.45206737219627
 20
-18.233589329526836
 11
 399.39978902953578
 21
-18.233589329526758
  0
LINE
  8
218
  6
CONTINUOUS
 62
     7
 10
 216.45206737219627
 20
-192.30384689408251
 11
 399.39978902953578
 21
-192.30384689408245
  0
LINE
  8
218
  6
CONTINUOUS
 62
     7
 10
 399.39978902953578
 20
-212.78270042194092
 11
 216.45206737219627
 21
-212.78270042194097
  0
LINE
  8
218
  6
CONTINUOUS
 62
     7
 10
 216.45206737219627
 20
-212.78270042194086
 11
 216.45206737219627
 21
-7.994164455953011
  0
LINE
  8
218
  6
CONTINUOUS
 62
     7
 10
 232.20503430350084
 20
-212.78270042194086
 11
 232.20503430350084
 21
-7.994164455953011
  0
LINE
  8
218
  6
CONTINUOUS
 62
     7
 10
 353.17262005983207
 20
-212.782700421941
 11
 353.17262005983207
 21
-7.994164455953011
  0
LINE
  8
218
  6
CONTINUOUS
 62
     7
 10
 399.39978902953578
 20
-212.78270042194092
 11
 399.39978902953578
 21
-7.9941644559530225
  0
TEXT
  8
218
  6
CONTINUOUS
 62
     96
 10
 343.04769380990069
 20
-98.028428543668724
 11
 349.04769380990069
 21
-98.028428543668724
 40
 6
 41
 1
  1
2
 50
 0.0000000000000495
 72
  5
  0
TEXT
  8
218
  6
CONTINUOUS
 62
     96
 10
 343.04769380990069
 20
-118.50728207152721
 11
 349.04769380990069
 21
-118.50728207152721
 40
 6
 41
 1
  1
1
 50
 0.0000000000000495
 72
  5
  0
TEXT
  8
218
  6
CONTINUOUS
 62
     96
 10
 343.04769380990069
 20
-108.26785708338656
 11
 349.04769380990069
 21
-108.26785708338656
 40
 6
 41
 1
  1
1
 50
 0.0000000000000495
 72
  5
  0
TEXT
  8
218
  6
CONTINUOUS
 62
     96
 10
 343.04769380990069
 20
-128.74670316438915
 11
 349.04769380990069
 21
-128.74670316438915
 40
 6
 41
 1
  1
1
 50
 0.0000000000000495
 72
  5
  0
TEXT
  8
218
  6
CONTINUOUS
 62
     96
 10
 343.04769380990069
 20
-190.18327165308887
 11
 349.04769380990069
 21
-190.18327165308887
 40
 6
 41
 1
  1
1
 50
 0.0000000000000495
 72
  5
  0
TEXT
  8
218
  6
CONTINUOUS
 62
     96
 10
 370.28620454468393
 20
-205.54327365801169
 11
 382.28620454468393
 21
-205.54327365801169
 40
 6
 41
 1
  1
備考
 50
 0
 72
  5
  0
TEXT
  8
218
  6
CONTINUOUS
 62
     96
 10
 343.04769380990069
 20
-87.788999774816688
 11
 349.04769380990069
 21
-87.788999774816688
 40
 6
 41
 1
  1
1
 50
 0.0000000000000495
 72
  5
  0
TEXT
  8
218
  6
CONTINUOUS
 62
     96
 10
 343.04769380990069
 20
-77.549574786676033
 11
 349.04769380990069
 21
-77.549574786676033
 40
 6
 41
 1
  1
1
 50
 0.0000000000000495
 72
  5
  0
TEXT
  8
218
  6
CONTINUOUS
 62
     96
 10
 343.04769380990069
 20
-67.310146246958141
 11
 349.04769380990069
 21
-67.310146246958141
 40
 6
 41
 1
  1
1
 50
 0.0000000000000495
 72
  5
  0
TEXT
  8
218
  6
CONTINUOUS
 62
     96
 10
 343.04769380990069
 20
-57.070721258817485
 11
 349.04769380990069
 21
-57.070721258817485
 40
 6
 41
 1
  1
1
 50
 0.0000000000000495
 72
  5
  0
TEXT
  8
218
  6
CONTINUOUS
 62
     96
 10
 343.04769380990069
 20
-46.831292604532344
 11
 349.04769380990069
 21
-46.831292604532344
 40
 6
 41
 1
  1
1
 50
 0.0000000000000495
 72
  5
  0
TEXT
  8
218
  6
CONTINUOUS
 62
     96
 10
 343.04769380990069
 20
-36.591867616391681
 11
 349.04769380990069
 21
-36.591867616391674
 40
 6
 41
 1
  1
1
 50
 0.0000000000000495
 72
  5
  0
TEXT
  8
218
  6
CONTINUOUS
 62
     96
 10
 343.04769380990069
 20
-26.352438962106771
 11
 349.04769380990069
 21
-26.352438962106763
 40
 6
 41
 1
  1
1
 50
 0.0000000000000495
 72
  5
  0
TEXT
  8
0
  6
CONTINUOUS
 62
     56
 10
 179.49995800000045
 20
-278.50002900042364
 11
 193.49995800000045
 21
-278.50002900042364
 40
 6
 41
 1
  1
石渡
 50
 0
 72
  5
  0
LINE
  8
0
  6
CONTINUOUS
 62
     3
 10
 0.6170886075948658
 20
-86.294303797468373
 11
 3.6170886075948654
 21
-86.294303797468373
  0
LINE
  8
0
  6
CONTINUOUS
 62
     3
 10
 40.617088607594852
 20
-18.294303797468391
 11
 40.617088607594852
 21
-106.29430379746839
  0
LINE
  8
0
  6
CONTINUOUS
 62
     3
 10
 1.6170886075948516
 20
-17.294303797468391
 11
 39.617088607594852
 21
-17.294303797468391
  0
LINE
  8
0
  6
CONTINUOUS
 62
     3
 10
 3.6170886075948654
 20
-72.794303797468373
 11
 3.6170886075948654
 21
-62.29430379746838
  0
LINE
  8
0
  6
CONTINUOUS
 62
     3
 10
 1.6170886075948658
 20
-74.794303797468373
 11
-0.8829113924051342
 21
-74.794303797468373
  0
LINE
  8
0
  6
CONTINUOUS
 62
     3
 10
-0.8829113924051342
 20
-74.794303797468373
 11
-0.8829113924051057
 21
-62.29430379746838
  0
LINE
  8
0
  6
CONTINUOUS
 62
     3
 10
 5.7170886075948602
 20
-66.294303797468373
 11
 14.617088607594868
 21
-66.294303797468373
  0
ARC
  8
0
  6
CONTINUOUS
 62
     3
 10
 1.6170886075948658
 20
-72.794303797468373
 40
 2
 50
-90.000001535234532
 51
-0.000000000000007
  0
LINE
  8
0
  6
CONTINUOUS
 62
     3
 10
 6.2170886075948602
 20
-71.294303797468359
 11
 6.2170886075948602
 21
-66.294303797468373
  0
ARC
  8
0
  6
CONTINUOUS
 62
     3
 10
 8.2170886075948602
 20
-71.294303797468359
 40
 2
 50
 180.00000307046903
 51
-90.000001535234532
  0
LINE
  8
0
  6
CONTINUOUS
 62
     3
 10
 23.21708860759486
 20
-71.794303797468373
 11
 23.21708860759486
 21
-62.294303797468388
  0
LINE
  8
0
  6
CONTINUOUS
 62
     3
 10
 23.21708860759486
 20
-71.794303797468373
 11
 15.21708860759486
 21
-71.794303797468359
  0
LINE
  8
0
  6
CONTINUOUS
 62
     3
 10
 15.21708860759486
 20
-73.294303797468359
 11
 8.2170886075948602
 21
-73.294303797468359
  0
LINE
  8
0
  6
CONTINUOUS
 62
     3
 10
 15.21708860759486
 20
-73.294303797468359
 11
 15.21708860759486
 21
-71.794303797468345
  0
LINE
  8
0
  6
CONTINUOUS
 62
     3
 10
 3.7170886075948602
 20
-86.294303797468373
 11
 5.7170886075948602
 21
-86.294303797468373
  0
LINE
  8
0
  6
CONTINUOUS
 62
     3
 10
 3.7170886075948602
 20
-62.29430379746838
 11
 3.7170886075948602
 21
-86.294303797468373
  0
LINE
  8
0
  6
CONTINUOUS
 62
     3
 10
 5.7170886075948602
 20
-86.294303797468373
 11
 5.7170886075948602
 21
-62.29430379746838
  0
LINE
  8
0
  6
CONTINUOUS
 62
     3
 10
 3.6170886075948654
 20
-62.29430379746838
 11
 3.6170886075948654
 21
-86.294303797468373
  0
LINE
  8
0
  6
CONTINUOUS
 62
     3
 10
 3.6170886075948654
 20
-86.294303797468373
 11
 3.7170886075948602
 21
-86.294303797468373
  0
LINE
  8
0
  6
CONTINUOUS
 62
     3
 10
 6.2170886075948602
 20
-66.544303797468388
 11
 10.21708860759486
 21
-66.544303797468388
  0
LINE
  8
0
  6
CONTINUOUS
 62
     3
 10
 10.21708860759486
 20
-66.294303797468373
 11
 10.21708860759486
 21
-66.544303797468388
  0
LINE
  8
0
  6
CONTINUOUS
 62
     3
 10
 19.21708860759486
 20
-62.294303797468388
 11
 19.21708860759486
 21
-66.294303797468388
  0
LINE
  8
0
  6
CONTINUOUS
 62
     3
 10
 10.21708860759486
 20
-66.294303797468388
 11
 19.21708860759486
 21
-66.294303797468388
  0
LINE
  8
0
  6
CONTINUOUS
 62
     3
 10
 6.2170886075948602
 20
-69.794303797468388
 11
 5.9670886075948602
 21
-69.794303797468388
  0
LINE
  8
0
  6
CONTINUOUS
 62
     3
 10
 5.9670886075948602
 20
-68.794303797468388
 11
 6.2170886075948602
 21
-68.794303797468388
  0
LINE
  8
0
  6
CONTINUOUS
 62
     3
 10
 5.7170886075948602
 20
-69.044303797468388
 11
 5.7170886075948602
 21
-69.544303797468388
  0
ARC
  8
0
  6
CONTINUOUS
 62
     3
 10
 5.9670886075948602
 20
-69.044303797468388
 40
 0.25
 50
 90.000001535234517
 51
 180.00000307046903
  0
ARC
  8
0
  6
CONTINUOUS
 62
     3
 10
 5.9670886075948602
 20
-69.544303797468388
 40
 0.25
 50
 180.00000307046903
 51
-90.000001535234517
  0
LINE
  8
0
  6
CONTINUOUS
 62
     3
 10
 0.6170886075948516
 20
-18.294303797468391
 11
 0.6170886075948658
 21
-62.29430379746838
  0
LINE
  8
0
  6
CONTINUOUS
 62
     3
 10
 14.71708860759486
 20
-66.294303797468373
 11
 14.71708860759486
 21
-62.29430379746838
  0
LINE
  8
0
  6
CONTINUOUS
 62
     3
 10
 0.6170886075948658
 20
-86.294303797468373
 11
 0.6170886075948658
 21
-106.29430379746839
  0
LINE
  8
0
  6
CONTINUOUS
 62
     3
 10
 5.7170886075948602
 20
-78.294303797468388
 11
 10.71708860759486
 21
-78.294303797468388
  0
LINE
  8
0
  6
CONTINUOUS
 62
     3
 10
 10.71708860759486
 20
-74.794303797468388
 11
 27.617088607594866
 21
-74.794303797468388
  0
LINE
  8
0
  6
CONTINUOUS
 62
     3
 10
 27.617088607594866
 20
-62.294303797468388
 11
 27.617088607594866
 21
-74.794303797468388
  0
LINE
  8
0
  6
CONTINUOUS
 62
     3
 10
 10.71708860759486
 20
-74.794303797468388
 11
 10.71708860759486
 21
-78.294303797468388
  0
LINE
  8
0
  6
CONTINUOUS
 62
     3
 10
 23.617088607594852
 20
-74.794303797468388
 11
 23.617088607594852
 21
-81.794303797468388
  0
LINE
  8
0
  6
CONTINUOUS
 62
     3
 10
 17.617088607594866
 20
-74.794303797468388
 11
 17.617088607594866
 21
-81.794303797468388
  0
LINE
  8
0
  6
CONTINUOUS
 62
     3
 10
 31.617088607594855
 20
-87.794303797468388
 11
 31.617088607594855
 21
-107.29430379746839
  0
LINE
  8
0
  6
CONTINUOUS
 62
     3
 10
 9.6170886075948658
 20
-87.794303797468388
 11
 9.6170886075948658
 21
-107.29430379746839
  0
LINE
  8
0
  6
CONTINUOUS
 62
     3
 10
 14.617088607594839
 20
-81.794303797468388
 11
 26.617088607594845
 21
-81.794303797468388
  0
LINE
  8
0
  6
CONTINUOUS
 62
     3
 10
 1.6170886075948658
 20
-107.29430379746839
 11
 0.6170886075948658
 21
-106.29430379746839
  0
LINE
  8
0
  6
CONTINUOUS
 62
     3
 10
 40.617088607594852
 20
-106.29430379746839
 11
 39.617088607594852
 21
-107.29430379746839
  0
LINE
  8
0
  6
CONTINUOUS
 62
     3
 10
 40.617088607594852
 20
-18.294303797468391
 11
 39.617088607594852
 21
-17.294303797468391
  0
LINE
  8
0
  6
CONTINUOUS
 62
     3
 10
 1.6170886075948516
 20
-17.294303797468391
 11
 0.6170886075948516
 21
-18.294303797468391
  0
LINE
  8
0
  6
CONTINUOUS
 62
     3
 10
 30.617088607594855
 20
-105.29430379746839
 11
 31.617088607594855
 21
-107.29430379746839
  0
LINE
  8
0
  6
CONTINUOUS
 62
     3
 10
 10.617088607594866
 20
-105.29430379746839
 11
 9.6170886075948658
 21
-107.29430379746837
  0
LINE
  8
0
  6
CONTINUOUS
 62
     3
 10
 26.617088607594837
 20
-98.794303797468416
 11
 14.617088607594852
 21
-98.794303797468416
  0
LINE
  8
0
  6
CONTINUOUS
 62
     3
 10
 14.617088607594852
 20
-98.794303797468416
 11
 14.617088607594852
 21
-109.79430379746842
  0
LINE
  8
0
  6
CONTINUOUS
 62
     3
 10
 26.617088607594837
 20
-109.79430379746842
 11
 26.617088607594837
 21
-98.794303797468416
  0
LINE
  8
0
  6
CENTER
 62
     7
 10
 20.617088607594944
 20
 31.882383966244703
 11
 20.617088607594788
 21
-156.57594936708861
  0
LINE
  8
0
  6
CONTINUOUS
 62
     3
 10
 16.617088607594852
 20
-100.79430379746842
 11
 24.617088607594837
 21
-100.79430379746842
  0
LINE
  8
0
  6
CONTINUOUS
 62
     3
 10
 24.617088607594837
 20
-100.79430379746842
 11
 24.617088607594837
 21
-109.78987619100273
  0
LINE
  8
0
  6
CONTINUOUS
 62
     3
 10
 16.617088607594852
 20
-100.79430379746842
 11
 16.617088607594852
 21
-109.79430379746842
  0
LINE
  8
0
  6
CENTER
 62
     7
 10
 22.617088607594837
 20
-98.953626117427959
 11
 22.617088607594837
 21
-102.67730599129034
  0
LINE
  8
0
  6
CENTER
 62
     7
 10
 18.617088607594852
 20
-98.953626117427959
 11
 18.617088607594852
 21
-102.67730599129034
  0
LINE
  8
0
  6
CONTINUOUS
 62
     3
 10
 24.117088607594837
 20
-98.794303797468416
 11
 24.117088607594837
 21
-100.79430379746842
  0
LINE
  8
0
  6
CONTINUOUS
 62
     3
 10
 21.117088607594852
 20
-100.79430379746842
 11
 21.117088607594852
 21
-98.794303797468416
  0
LINE
  8
0
  6
CONTINUOUS
 62
     3
 10
 20.117088607594852
 20
-100.79430379746842
 11
 20.117088607594852
 21
-98.794303797468416
  0
LINE
  8
0
  6
CONTINUOUS
 62
     3
 10
 17.117088607594852
 20
-98.794303797468416
 11
 17.117088607594852
 21
-100.79430379746842
  0
LINE
  8
0
  6
CONTINUOUS
 62
     3
 10
 14.617088607594839
 20
-113.7943037974684
 11
 26.617088607594837
 21
-113.7943037974684
  0
LINE
  8
0
  6
CONTINUOUS
 62
     3
 10
 26.617088607594837
 20
-110.7943037974684
 11
 26.617088607594837
 21
-113.7943037974684
  0
LINE
  8
0
  6
CONTINUOUS
 62
     3
 10
 14.617088607594839
 20
-110.7943037974684
 11
 14.617088607594839
 21
-113.7943037974684
  0
LINE
  8
0
  6
CONTINUOUS
 62
     3
 10
 24.617088607594837
 20
-107.7943037974684
 11
 24.617088607594837
 21
-110.7943037974684
  0
LINE
  8
0
  6
CONTINUOUS
 62
     3
 10
 16.617088607594837
 20
-107.7943037974684
 11
 16.617088607594837
 21
-110.7943037974684
  0
LINE
  8
0
  6
CONTINUOUS
 62
     3
 10
 14.617088607594839
 20
-110.7943037974684
 11
 16.617088607594837
 21
-110.7943037974684
  0
LINE
  8
0
  6
CONTINUOUS
 62
     3
 10
 24.617088607594837
 20
-110.7943037974684
 11
 26.617088607594837
 21
-110.7943037974684
  0
LINE
  8
0
  6
CONTINUOUS
 62
     3
 10
 22.617088607594837
 20
-107.7943037974684
 11
 22.617088607594837
 21
-112.7943037974684
  0
LINE
  8
0
  6
CONTINUOUS
 62
     3
 10
 18.617088607594837
 20
-112.7943037974684
 11
 18.617088607594837
 21
-107.7943037974684
  0
LINE
  8
0
  6
CONTINUOUS
 62
     3
 10
 17.617088607594837
 20
-113.7943037974684
 11
 18.617088607594837
 21
-112.7943037974684
  0
LINE
  8
0
  6
CONTINUOUS
 62
     3
 10
 23.617088607594837
 20
-113.7943037974684
 11
 22.617088607594837
 21
-112.7943037974684
  0
CIRCLE
  8
0
  6
CONTINUOUS
 62
     3
 10
 20.617088607594837
 20
-106.22146620014013
 40
 2.5443698841892854
  0
LINE
  8
0
  6
CONTINUOUS
 62
     3
 10
 16.617088607594837
 20
-107.7943037974684
 11
 18.617088607594837
 21
-107.7943037974684
  0
LINE
  8
0
  6
CONTINUOUS
 62
     3
 10
 22.617088607594837
 20
-107.7943037974684
 11
 24.617088607594837
 21
-107.7943037974684
  0
LINE
  8
0
  6
CONTINUOUS
 62
     3
 10
 14.617088607594852
 20
-97.794303797468416
 11
 14.617088607594852
 21
-98.794303797468416
  0
LINE
  8
0
  6
CONTINUOUS
 62
     3
 10
 26.617088607594837
 20
-97.794303797468416
 11
 26.617088607594837
 21
-98.794303797468416
  0
LINE
  8
0
  6
CONTINUOUS
 62
     3
 10
 26.617088607594837
 20
-82.794303797468416
 11
 14.617088607594852
 21
-82.794303797468416
  0
LINE
  8
0
  6
CONTINUOUS
 62
     3
 10
 14.617088607594852
 20
-82.794303797468416
 11
 14.617088607594852
 21
-93.79430379746843
  0
LINE
  8
0
  6
CONTINUOUS
 62
     3
 10
 26.617088607594837
 20
-93.79430379746843
 11
 26.617088607594837
 21
-82.794303797468416
  0
LINE
  8
0
  6
CONTINUOUS
 62
     3
 10
 16.617088607594852
 20
-84.794303797468416
 11
 24.617088607594837
 21
-84.794303797468416
  0
LINE
  8
0
  6
CONTINUOUS
 62
     3
 10
 24.617088607594837
 20
-84.794303797468416
 11
 24.617088607594837
 21
-93.789876191002733
  0
LINE
  8
0
  6
CONTINUOUS
 62
     3
 10
 16.617088607594852
 20
-84.794303797468416
 11
 16.617088607594852
 21
-93.79430379746843
  0
LINE
  8
0
  6
CENTER
 62
     7
 10
 22.617088607594837
 20
-82.953626117427973
 11
 22.617088607594837
 21
-86.677305991290353
  0
LINE
  8
0
  6
CENTER
 62
     7
 10
 18.617088607594852
 20
-82.953626117427973
 11
 18.617088607594852
 21
-86.677305991290353
  0
LINE
  8
0
  6
CONTINUOUS
 62
     3
 10
 24.117088607594837
 20
-82.794303797468416
 11
 24.117088607594837
 21
-84.794303797468416
  0
LINE
  8
0
  6
CONTINUOUS
 62
     3
 10
 21.117088607594852
 20
-84.794303797468416
 11
 21.117088607594852
 21
-82.794303797468416
  0
LINE
  8
0
  6
CONTINUOUS
 62
     3
 10
 20.117088607594852
 20
-84.794303797468416
 11
 20.117088607594852
 21
-82.794303797468416
  0
LINE
  8
0
  6
CONTINUOUS
 62
     3
 10
 17.117088607594852
 20
-82.794303797468416
 11
 17.117088607594852
 21
-84.794303797468416
  0
LINE
  8
0
  6
CONTINUOUS
 62
     3
 10
 14.617088607594839
 20
-97.794303797468416
 11
 26.617088607594837
 21
-97.794303797468416
  0
LINE
  8
0
  6
CONTINUOUS
 62
     3
 10
 26.617088607594837
 20
-94.794303797468416
 11
 26.617088607594837
 21
-97.794303797468416
  0
LINE
  8
0
  6
CONTINUOUS
 62
     3
 10
 14.617088607594839
 20
-94.794303797468416
 11
 14.617088607594839
 21
-97.794303797468416
  0
LINE
  8
0
  6
CONTINUOUS
 62
     3
 10
 24.617088607594837
 20
-91.794303797468416
 11
 24.617088607594837
 21
-94.794303797468416
  0
LINE
  8
0
  6
CONTINUOUS
 62
     3
 10
 16.617088607594837
 20
-91.794303797468416
 11
 16.617088607594837
 21
-94.794303797468416
  0
LINE
  8
0
  6
CONTINUOUS
 62
     3
 10
 14.617088607594839
 20
-94.794303797468416
 11
 16.617088607594837
 21
-94.794303797468416
  0
LINE
  8
0
  6
CONTINUOUS
 62
     3
 10
 24.617088607594837
 20
-94.794303797468416
 11
 26.617088607594837
 21
-94.794303797468416
  0
LINE
  8
0
  6
CONTINUOUS
 62
     3
 10
 22.617088607594837
 20
-91.794303797468416
 11
 22.617088607594837
 21
-96.794303797468416
  0
LINE
  8
0
  6
CONTINUOUS
 62
     3
 10
 18.617088607594837
 20
-96.794303797468416
 11
 18.617088607594837
 21
-91.794303797468416
  0
LINE
  8
0
  6
CONTINUOUS
 62
     3
 10
 17.617088607594837
 20
-97.794303797468416
 11
 18.617088607594837
 21
-96.794303797468416
  0
LINE
  8
0
  6
CONTINUOUS
 62
     3
 10
 23.617088607594837
 20
-97.794303797468416
 11
 22.617088607594837
 21
-96.794303797468416
  0
CIRCLE
  8
0
  6
CONTINUOUS
 62
     3
 10
 20.617088607594837
 20
-90.221466200140128
 40
 2.5443698841892854
  0
LINE
  8
0
  6
CONTINUOUS
 62
     3
 10
 16.617088607594837
 20
-91.794303797468416
 11
 18.617088607594837
 21
-91.794303797468416
  0
LINE
  8
0
  6
CONTINUOUS
 62
     3
 10
 22.617088607594837
 20
-91.794303797468416
 11
 24.617088607594837
 21
-91.794303797468416
  0
LINE
  8
0
  6
CONTINUOUS
 62
     3
 10
 10.617088607594837
 20
-110.79430379746839
 11
 10.617088607594837
 21
-88.794303797468388
  0
LINE
  8
0
  6
CONTINUOUS
 62
     3
 10
 30.617088607594834
 20
-110.79430379746842
 11
 30.617088607594834
 21
-88.794303797468416
  0
LINE
  8
0
  6
CONTINUOUS
 62
     3
 10
 5.6170886075948232
 20
-124.79430379746839
 11
 5.6170886075948232
 21
-111.79430379746839
  0
LINE
  8
0
  6
CONTINUOUS
 62
     3
 10
 35.617088607594837
 20
-111.79430379746842
 11
 35.617088607594837
 21
-124.79430379746839
  0
LINE
  8
0
  6
CONTINUOUS
 62
     3
 10
 23.617088607594837
 20
-132.79430379746839
 11
 23.617088607594837
 21
-114.7943037974684
  0
LINE
  8
0
  6
CONTINUOUS
 62
     3
 10
 17.617088607594837
 20
-114.7943037974684
 11
 17.617088607594837
 21
-132.79430379746839
  0
LINE
  8
0
  6
CONTINUOUS
 62
     3
 10
 28.117088607594816
 20
-125.79430379746839
 11
 34.617088607594837
 21
-125.79430379746839
  0
LINE
  8
0
  6
CONTINUOUS
 62
     3
 10
 6.6170886075948232
 20
-125.79430379746839
 11
 13.117088607594816
 21
-125.79430379746839
  0
LINE
  8
0
  6
CONTINUOUS
 62
     3
 10
 34.617088607594837
 20
-110.79430379746842
 11
 30.617088607594834
 21
-110.79430379746842
  0
LINE
  8
0
  6
CONTINUOUS
 62
     3
 10
 10.617088607594837
 20
-110.79430379746839
 11
 6.6170886075948232
 21
-110.79430379746839
  0
LINE
  8
0
  6
CONTINUOUS
 62
     3
 10
 26.617088607594837
 20
-88.794303797468416
 11
 26.617088607594837
 21
-114.7943037974684
  0
LINE
  8
0
  6
CONTINUOUS
 62
     3
 10
 26.617088607594837
 20
-114.7943037974684
 11
 23.617088607594837
 21
-114.7943037974684
  0
LINE
  8
0
  6
CONTINUOUS
 62
     3
 10
 17.617088607594837
 20
-114.7943037974684
 11
 14.617088607594839
 21
-114.7943037974684
  0
LINE
  8
0
  6
CONTINUOUS
 62
     3
 10
 30.617088607594834
 20
-88.794303797468416
 11
 26.617088607594837
 21
-88.794303797468416
  0
LINE
  8
0
  6
CONTINUOUS
 62
     3
 10
 14.617088607594839
 20
-88.794303797468388
 11
 10.617088607594837
 21
-88.794303797468388
  0
LINE
  8
0
  6
CONTINUOUS
 62
     3
 10
 14.617088607594839
 20
-114.7943037974684
 11
 26.617088607594837
 21
-114.7943037974684
  0
LINE
  8
0
  6
CONTINUOUS
 62
     3
 10
 39.617088607594852
 20
-107.29430379746839
 11
 31.617088607594855
 21
-107.29430379746839
  0
LINE
  8
0
  6
CONTINUOUS
 62
     3
 10
 9.6170886075948516
 20
-107.29430379746839
 11
 1.6170886075948658
 21
-107.29430379746839
  0
LINE
  8
0
  6
CONTINUOUS
 62
     3
 10
 26.617088607594845
 20
-87.794303797468388
 11
 26.617088607594845
 21
-81.794303797468388
  0
LINE
  8
0
  6
CONTINUOUS
 62
     3
 10
 14.617088607594839
 20
-87.794303797468388
 11
 14.617088607594839
 21
-81.794303797468388
  0
LINE
  8
0
  6
CONTINUOUS
 62
     3
 10
 26.617088607594845
 20
-87.794303797468388
 11
 31.617088607594855
 21
-87.794303797468388
  0
LINE
  8
0
  6
CONTINUOUS
 62
     3
 10
 14.617088607594839
 20
-87.794303797468388
 11
 9.6170886075948658
 21
-87.794303797468388
  0
LINE
  8
0
  6
CONTINUOUS
 62
     176
 10
-18.401107594936782
 20
-62.294303797468388
 11
 57.223892405063197
 21
-62.294303797468388
  0
LINE
  8
0
  6
CONTINUOUS
 62
     3
 10
 29.117088607594809
 20
-129.7943037974681
 11
 29.117088607594809
 21
-135.79430379746839
  0
LINE
  8
0
  6
CONTINUOUS
 62
     3
 10
 12.117088607594816
 20
-129.79430379746867
 11
 12.117088607594816
 21
-135.79430379746839
  0
LINE
  8
0
  6
CONTINUOUS
 62
     3
 10
 28.117088607594816
 20
-125.79430379746839
 11
 28.117088607594809
 21
-136.79430379746839
  0
LINE
  8
0
  6
CONTINUOUS
 62
     3
 10
 13.117088607594802
 20
-136.79430379746839
 11
 13.117088607594816
 21
-125.79430379746839
  0
LINE
  8
0
  6
CONTINUOUS
 62
     3
 10
 28.117088607594809
 20
-136.79430379746839
 11
 29.117088607594809
 21
-135.79430379746839
  0
LINE
  8
0
  6
CONTINUOUS
 62
     3
 10
 13.117088607594802
 20
-136.79430379746839
 11
 12.117088607594802
 21
-135.79430379746839
  0
LINE
  8
0
  6
CONTINUOUS
 62
     3
 10
 13.117088607595093
 20
-128.79430379746839
 11
 12.117088607595093
 21
-129.79430379746839
  0
LINE
  8
0
  6
CONTINUOUS
 62
     3
 10
 28.1170886075951
 20
-128.79430379746839
 11
 29.117088607595097
 21
-129.79430379746839
  0
LINE
  8
0
  6
CONTINUOUS
 62
     3
 10
 24.617088607594809
 20
-136.79430379746839
 11
 23.617088607594837
 21
-148.79430379746839
  0
LINE
  8
0
  6
CONTINUOUS
 62
     3
 10
 16.617088607594809
 20
-136.79430379746839
 11
 17.617088607594837
 21
-148.79430379746839
  0
LINE
  8
0
  6
CONTINUOUS
 62
     3
 10
 22.617088607594816
 20
-135.79430379746836
 11
 22.617088607594802
 21
-148.79430379746839
  0
LINE
  8
0
  6
CONTINUOUS
 62
     3
 10
 18.617088607594802
 20
-148.79430379746839
 11
 18.617088607594802
 21
-135.79430379746839
  0
LINE
  8
0
  6
CONTINUOUS
 62
     3
 10
 17.617088607594837
 20
-132.79430379746839
 11
 18.617088607594802
 21
-135.79430379746839
  0
LINE
  8
0
  6
CONTINUOUS
 62
     3
 10
 22.617088607594816
 20
-135.79430379746839
 11
 23.617088607594837
 21
-132.79430379746839
  0
LINE
  8
0
  6
CONTINUOUS
 62
     3
 10
 13.117088607594816
 20
-136.79430379746839
 11
 18.617088607594802
 21
-136.79430379746839
  0
LINE
  8
0
  6
CONTINUOUS
 62
     3
 10
 22.617088607594816
 20
-136.79430379746839
 11
 28.117088607594809
 21
-136.79430379746839
  0
LINE
  8
0
  6
CONTINUOUS
 62
     3
 10
 23.617088607594837
 20
-148.79430379746839
 11
 17.61708860759483
 21
-148.79430379746839
  0
LINE
  8
0
  6
CONTINUOUS
 62
     3
 10
 5.6170886075948232
 20
 0.2056962025316089
 11
 5.6170886075948232
 21
-12.794303797468391
  0
LINE
  8
0
  6
CONTINUOUS
 62
     3
 10
 6.6170886075948232
 20
 1.2056962025316089
 11
 34.617088607594837
 21
 1.2056962025316089
  0
LINE
  8
0
  6
CONTINUOUS
 62
     3
 10
 34.617088607594837
 20
-13.794303797468363
 11
 6.6170886075948232
 21
-13.794303797468363
  0
LINE
  8
0
  6
CONTINUOUS
 62
     3
 10
 13.117088607594814
 20
 3.205696202531584
 11
 13.117088607594816
 21
 1.2056962025316089
  0
LINE
  8
0
  6
CONTINUOUS
 62
     3
 10
 28.117088607594816
 20
 1.2056962025316089
 11
 28.117088607594816
 21
 3.2056962025316054
  0
LINE
  8
0
  6
CONTINUOUS
 62
     3
 10
 23.783755274261498
 20
 22.205696202531612
 11
 23.617088607594837
 21
 24.205696202531605
  0
LINE
  8
0
  6
CONTINUOUS
 62
     3
 10
 17.450421940928166
 20
 22.205696202531612
 11
 17.617088607594837
 21
 24.205696202531605
  0
LINE
  8
0
  6
CONTINUOUS
 62
     3
 10
 23.617088607594837
 20
 24.205696202531605
 11
 17.61708860759483
 21
 24.205696202531605
  0
LINE
  8
0
  6
CONTINUOUS
 62
     3
 10
 35.617088607594837
 20
-12.794303797468363
 11
 35.617088607594837
 21
 0.2056962025316089
  0
LINE
  8
0
  6
CONTINUOUS
 62
     3
 10
 30.617088607594834
 20
-13.794303797468363
 11
 30.617088607594834
 21
-17.294303797468391
  0
LINE
  8
0
  6
CONTINUOUS
 62
     3
 10
 10.617088607594972
 20
-13.794303797468343
 11
 10.617088607594965
 21
-17.294303797468359
  0
LINE
  8
0
  6
CONTINUOUS
 62
     2
 10
 35.117088607594837
 20
-0.7943037974684195
 11
 35.117088607594837
 21
-11.794303797468391
  0
LINE
  8
0
  6
CONTINUOUS
 62
     2
 10
 34.617088607594837
 20
-1.7943037974684195
 11
 34.617088607594837
 21
-10.794303797468391
  0
LINE
  8
0
  6
CONTINUOUS
 62
     2
 10
 34.117088607594837
 20
-2.7943037974684231
 11
 34.117088607594837
 21
-9.7943037974683911
  0
LINE
  8
0
  6
CONTINUOUS
 62
     2
 10
 33.617088607594837
 20
-3.7943037974684231
 11
 33.617088607594837
 21
-8.7943037974683911
  0
LINE
  8
0
  6
CONTINUOUS
 62
     2
 10
 33.117088607594837
 20
-4.7943037974684231
 11
 33.117088607594837
 21
-8.7943037974683911
  0
LINE
  8
0
  6
CONTINUOUS
 62
     2
 10
 6.1170886075949937
 20
-0.7943037974683946
 11
 6.1170886075949795
 21
-11.794303797468366
  0
LINE
  8
0
  6
CONTINUOUS
 62
     2
 10
 6.6170886075949937
 20
-1.7943037974683982
 11
 6.6170886075949795
 21
-10.79430379746837
  0
LINE
  8
0
  6
CONTINUOUS
 62
     2
 10
 7.1170886075949937
 20
-2.7943037974684017
 11
 7.1170886075949795
 21
-9.7943037974683698
  0
LINE
  8
0
  6
CONTINUOUS
 62
     2
 10
 7.6170886075949937
 20
-3.7943037974684017
 11
 7.6170886075949795
 21
-8.7943037974683698
  0
LINE
  8
0
  6
CONTINUOUS
 62
     2
 10
 8.1170886075949937
 20
-4.7943037974684017
 11
 8.1170886075949795
 21
-8.7943037974683698
  0
LINE
  8
0
  6
CONTINUOUS
 62
     3
 10
-105.38291139240515
 20
-88.794303797468402
 11
-105.38291139240519
 21
-114.79430379746839
  0
LINE
  8
0
  6
CONTINUOUS
 62
     3
 10
 14.617088607594852
 20
-88.794303797468388
 11
 14.617088607594839
 21
-114.7943037974684
  0
LINE
  8
0
  6
CONTINUOUS
 62
     3
 10
-322.88291139240511
 20
 121.3401898734177
 11
-322.88291139240511
 21
 154.3401898734177
  0
LINE
  8
0
  6
CONTINUOUS
 62
     3
 10
-321.88291139240511
 20
 120.3401898734177
 11
-302.88291139240511
 21
 120.3401898734177
  0
LINE
  8
0
  6
CONTINUOUS
 62
     3
 10
-321.88291139240511
 20
 155.3401898734177
 11
-302.88291139240511
 21
 155.3401898734177
  0
LINE
  8
0
  6
CONTINUOUS
 62
     3
 10
-295.08291139240509
 20
 149.8401898734177
 11
-295.08291139240509
 21
 125.8401898734177
  0
LINE
  8
0
  6
CONTINUOUS
 62
     3
 10
-302.88291139240511
 20
 120.3401898734177
 11
-295.08291139240509
 21
 125.8401898734177
  0
LINE
  8
0
  6
CONTINUOUS
 62
     3
 10
-302.88291139240511
 20
 155.3401898734177
 11
-295.08291139240509
 21
 149.8401898734177
  0
LINE
  8
0
  6
CONTINUOUS
 62
     3
 10
-287.88291139240511
 20
 147.3401898734177
 11
-287.88291139240511
 21
 128.3401898734177
  0
LINE
  8
0
  6
CONTINUOUS
 62
     3
 10
-321.88291139240511
 20
 155.3401898734177
 11
-322.88291139240511
 21
 154.3401898734177
  0
LINE
  8
0
  6
CONTINUOUS
 62
     3
 10
-321.88291139240511
 20
 120.3401898734177
 11
-322.88291139240511
 21
 121.3401898734177
  0
LINE
  8
0
  6
CONTINUOUS
 62
     3
 10
-321.88291139240511
 20
 120.3401898734177
 11
-321.88291139240511
 21
 155.3401898734177
  0
LINE
  8
0
  6
CONTINUOUS
 62
     3
 10
-295.08291139240509
 20
 128.3401898734177
 11
-287.88291139240511
 21
 128.3401898734177
  0
LINE
  8
0
  6
CONTINUOUS
 62
     3
 10
-295.08291139240509
 20
 147.3401898734177
 11
-287.88291139240511
 21
 147.3401898734177
  0
LINE
  8
0
  6
CONTINUOUS
 62
     3
 10
-287.88291139240505
 20
 144.8401898734177
 11
-282.38291139240516
 21
 144.8401898734177
  0
LINE
  8
0
  6
CONTINUOUS
 62
     3
 10
-282.38291139240516
 20
 157.8401898734177
 11
-282.38291139240516
 21
 117.8401898734177
  0
LINE
  8
0
  6
CONTINUOUS
 62
     3
 10
-282.38291139240516
 20
 117.8401898734177
 11
-276.38291139240516
 21
 117.8401898734177
  0
LINE
  8
0
  6
CONTINUOUS
 62
     3
 10
-282.38291139240516
 20
 157.8401898734177
 11
-276.38291139240516
 21
 157.8401898734177
  0
LINE
  8
0
  6
CONTINUOUS
 62
     3
 10
-287.88291139240505
 20
 130.8401898734177
 11
-282.38291139240516
 21
 130.8401898734177
  0
LINE
  8
0
  6
CONTINUOUS
 62
     3
 10
-137.38291139240513
 20
 179.8401898734177
 11
-137.38291139240513
 21
 232.67638352551029
  0
LINE
  8
0
  6
CONTINUOUS
 62
     3
 10
-267.38291139240516
 20
 178.8401898734177
 11
-267.38291139240516
 21
 232.67638352551029
  0
LINE
  8
0
  6
CONTINUOUS
 62
     3
 10
-157.38291139240511
 20
 178.84018987341773
 11
-157.38291139240511
 21
 232.67638352551029
  0
LINE
  8
0
  6
CONTINUOUS
 62
     3
 10
-247.38291139240511
 20
 202.84018987341773
 11
-247.38291139240511
 21
 232.67638352551029
  0
CIRCLE
  8
0
  6
CONTINUOUS
 62
     4
 10
-257.38291139240516
 20
 211.84018987341767
 40
 4.5
  0
LINE
  8
0
  6
CENTER
 62
     7
 10
-251.08291139240515
 20
 211.84018987341767
 11
-263.68291139240512
 21
 211.84018987341767
  0
LINE
  8
0
  6
CENTER
 62
     7
 10
-257.38291139240516
 20
 218.14018987341768
 11
-257.38291139240516
 21
 205.54018987341766
  0
CIRCLE
  8
0
  6
CONTINUOUS
 62
     4
 10
-147.38291139240516
 20
 211.84018987341764
 40
 4.5
  0
LINE
  8
0
  6
CENTER
 62
     7
 10
-141.08291139240515
 20
 211.84018987341764
 11
-153.68291139240517
 21
 211.84018987341764
  0
LINE
  8
0
  6
CENTER
 62
     7
 10
-147.38291139240516
 20
 218.14018987341765
 11
-147.38291139240516
 21
 205.54018987341763
  0
LINE
  8
0
  6
CONTINUOUS
 62
     2
 10
-318.05232026305373
 20
-34.294303797468359
 11
-307.05232026305379
 21
-34.294303797468359
  0
LINE
  8
0
  6
CONTINUOUS
 62
     2
 10
-317.05232026305373
 20
-34.794303797468359
 11
-308.05232026305379
 21
-34.794303797468359
  0
LINE
  8
0
  6
CONTINUOUS
 62
     2
 10
-316.05232026305373
 20
-35.294303797468359
 11
-309.05232026305379
 21
-35.294303797468359
  0
LINE
  8
0
  6
CONTINUOUS
 62
     2
 10
-315.05232026305373
 20
-35.794303797468359
 11
-310.05232026305379
 21
-35.794303797468359
  0
LINE
  8
0
  6
CONTINUOUS
 62
     2
 10
-314.05232026305373
 20
-36.294303797468359
 11
-310.05232026305379
 21
-36.294303797468359
  0
LINE
  8
0
  6
CONTINUOUS
 62
     3
 10
-113.38291139240502
 20
 1.2056962025316551
 11
-114.38291139240502
 21
 0.2056962025316515
  0
LINE
  8
0
  6
CONTINUOUS
 62
     3
 10
-84.382911392405163
 20
 0.2056962025316266
 11
-85.382911392405163
 21
 1.2056962025316551
  0
LINE
  8
0
  6
CONTINUOUS
 62
     3
 10
-84.382911392405163
 20
-12.794303797468345
 11
-85.382911392405163
 21
-13.794303797468345
  0
LINE
  8
0
  6
CONTINUOUS
 62
     3
 10
-113.38291139240502
 20
-13.794303797468345
 11
-114.38291139240502
 21
-12.79430379746832
  0
LINE
  8
0
  6
CONTINUOUS
 62
     3
 10
-84.382911392405163
 20
-124.79430379746839
 11
-85.382911392405163
 21
-125.79430379746839
  0
LINE
  8
0
  6
CONTINUOUS
 62
     3
 10
-84.382911392405163
 20
-111.79430379746842
 11
-85.382911392405163
 21
-110.79430379746842
  0
LINE
  8
0
  6
CONTINUOUS
 62
     3
 10
-114.38291139240518
 20
-111.79430379746839
 11
-113.38291139240518
 21
-110.79430379746839
  0
LINE
  8
0
  6
CONTINUOUS
 62
     3
 10
-114.38291139240518
 20
-124.79430379746839
 11
-113.38291139240518
 21
-125.79430379746839
  0
LINE
  8
0
  6
CONTINUOUS
 62
     3
 10
 35.617088607594837
 20
-111.79430379746842
 11
 34.617088607594837
 21
-110.79430379746842
  0
LINE
  8
0
  6
CONTINUOUS
 62
     3
 10
 35.617088607594837
 20
-124.79430379746839
 11
 34.617088607594837
 21
-125.79430379746839
  0
LINE
  8
0
  6
CONTINUOUS
 62
     3
 10
 5.6170886075948232
 20
-124.79430379746839
 11
 6.6170886075948232
 21
-125.79430379746839
  0
LINE
  8
0
  6
CONTINUOUS
 62
     3
 10
 5.6170886075948232
 20
-111.79430379746839
 11
 6.6170886075948232
 21
-110.79430379746839
  0
LINE
  8
0
  6
CONTINUOUS
 62
     3
 10
 34.617088607594837
 20
-13.794303797468363
 11
 35.617088607594837
 21
-12.794303797468363
  0
LINE
  8
0
  6
CONTINUOUS
 62
     3
 10
 34.617088607594837
 20
 1.2056962025316089
 11
 35.617088607594837
 21
 0.2056962025316089
  0
LINE
  8
0
  6
CONTINUOUS
 62
     3
 10
 5.6170886075948232
 20
 0.2056962025316089
 11
 6.6170886075948232
 21
 1.2056962025316089
  0
LINE
  8
0
  6
CONTINUOUS
 62
     3
 10
 5.6170886075948232
 20
-12.794303797468391
 11
 6.6170886075948232
 21
-13.794303797468363
  0
LINE
  8
0
  6
CONTINUOUS
 62
     3
 10
-92.382911392405134
 20
-74.794303797468388
 11
-91.382911392405134
 21
-62.294303797468388
  0
LINE
  8
0
  6
CONTINUOUS
 62
     3
 10
 27.617088607594866
 20
-74.794303797468402
 11
 28.617088607594866
 21
-62.294303797468388
  0
LINE
  8
0
  6
CONTINUOUS
 62
     3
 10
-103.38291139240516
 20
-109.79430379746842
 11
-105.38291139240515
 21
-109.79430379746842
  0
LINE
  8
0
  6
CONTINUOUS
 62
     3
 10
-95.382911392405163
 20
-109.79430379746842
 11
-93.382911392405163
 21
-109.79430379746842
  0
LINE
  8
0
  6
CONTINUOUS
 62
     3
 10
-103.38291139240515
 20
-93.79430379746843
 11
-105.38291139240515
 21
-93.79430379746843
  0
LINE
  8
0
  6
CONTINUOUS
 62
     3
 10
-95.382911392405163
 20
-93.789876191002733
 11
-93.382911392405163
 21
-93.789876191002733
  0
INSERT
  8
0
  2
CADWIN-G1
 10
0.0
 20
0.0
  0
INSERT
  8
0
  2
CADWIN-G2
 10
0.0
 20
0.0
  0
INSERT
  8
0
  2
CADWIN-G3
 10
0.0
 20
0.0
  0
INSERT
  8
0
  2
CADWIN-G4
 10
0.0
 20
0.0
  0
INSERT
  8
0
  2
CADWIN-G5
 10
0.0
 20
0.0
  0
INSERT
  8
0
  2
CADWIN-G6
 10
0.0
 20
0.0
  0
INSERT
  8
0
  2
CADWIN-G7
 10
0.0
 20
0.0
  0
LINE
  8
0
  6
CONTINUOUS
 62
     3
 10
 16.617088607594837
 20
-109.79430379746842
 11
 14.617088607594852
 21
-109.79430379746842
  0
LINE
  8
0
  6
CONTINUOUS
 62
     3
 10
 24.617088607594837
 20
-109.78987619100273
 11
 26.617088607594837
 21
-109.78987619100273
  0
LINE
  8
0
  6
CONTINUOUS
 62
     3
 10
 24.617088607594837
 20
-93.789876191002733
 11
 26.617088607594837
 21
-93.789876191002733
  0
LINE
  8
0
  6
CONTINUOUS
 62
     3
 10
 16.617088607594837
 20
-93.79430379746843
 11
 14.617088607594852
 21
-93.79430379746843
  0
INSERT
  8
0
  2
CADWIN-G8
 10
0.0
 20
0.0
  0
INSERT
  8
0
  2
CADWIN-G9
 10
0.0
 20
0.0
  0
INSERT
  8
0
  2
CADWIN-G10
 10
0.0
 20
0.0
  0
INSERT
  8
0
  2
CADWIN-G11
 10
0.0
 20
0.0
  0
INSERT
  8
0
  2
CADWIN-G12
 10
0.0
 20
0.0
  0
INSERT
  8
0
  2
CADWIN-G13
 10
0.0
 20
0.0
  0
INSERT
  8
0
  2
CADWIN-G14
 10
0.0
 20
0.0
  0
LINE
  8
0
  6
CONTINUOUS
 62
     3
 10
-138.38291139240516
 20
 116.84018987341776
 11
-136.38291139240516
 21
 114.84018987341774
  0
LINE
  8
0
  6
CONTINUOUS
 62
     3
 10
-136.38291139240516
 20
 122.84018987341776
 11
-135.38291139240516
 21
 123.84018987341776
  0
LINE
  8
0
  6
CONTINUOUS
 62
     3
 10
-128.38291139240513
 20
 122.84018987341776
 11
-129.38291139240513
 21
 123.84018987341776
  0
LINE
  8
0
  6
CONTINUOUS
 62
     3
 10
-128.38291139240513
 20
 115.84018987341776
 11
-128.38291139240513
 21
 122.84018987341776
  0
LINE
  8
0
  6
CONTINUOUS
 62
     3
 10
-135.38291139240516
 20
 123.84018987341776
 11
-129.38291139240513
 21
 123.84018987341776
  0
LINE
  8
0
  6
CONTINUOUS
 62
     3
 10
-212.38291139240511
 20
 126.84018987341767
 11
-209.38291139240511
 21
 122.84018987341776
  0
LINE
  8
0
  6
CONTINUOUS
 62
     3
 10
-252.38291139240511
 20
 126.84018987341767
 11
-255.38291139240511
 21
 122.84018987341776
  0
LINE
  8
0
  6
CONTINUOUS
 62
     3
 10
-136.38291139240516
 20
 122.84018987341776
 11
-209.38291139240511
 21
 122.84018987341776
  0
ARC
  8
0
  6
CONTINUOUS
 62
     3
 10
-264.38291139240511
 20
 125.84018987341776
 40
 3
 50
 180.00000307046903
 51
-90.000001535234517
  0
LINE
  8
0
  6
CONTINUOUS
 62
     3
 10
-217.38291139240511
 20
 126.84018987341767
 11
-217.38291139240511
 21
 116.84018987341767
  0
LINE
  8
0
  6
CONTINUOUS
 62
     3
 10
-247.38291139240511
 20
 126.84018987341767
 11
-247.38291139240511
 21
 116.8401898734177
  0
LINE
  8
0
  6
CONTINUOUS
 62
     3
 10
-247.38291139240511
 20
 116.8401898734177
 11
-217.38291139240511
 21
 116.84018987341767
  0
LINE
  8
0
  6
CONTINUOUS
 62
     3
 10
-244.38291139240511
 20
 115.8401898734177
 11
-220.38291139240511
 21
 115.84018987341767
  0
LINE
  8
0
  6
CONTINUOUS
 62
     3
 10
-220.38291139240511
 20
 116.84018987341767
 11
-220.38291139240511
 21
 115.84018987341767
  0
LINE
  8
0
  6
CONTINUOUS
 62
     3
 10
-244.38291139240511
 20
 116.8401898734177
 11
-244.38291139240511
 21
 115.8401898734177
  0
LINE
  8
0
  6
CONTINUOUS
 62
     3
 10
-207.38291139240511
 20
 166.3401898734177
 11
-207.38291139240511
 21
 129.3401898734177
  0
LINE
  8
0
  6
CONTINUOUS
 62
     3
 10
-206.88291139240511
 20
 128.8401898734177
 11
-198.88291139240511
 21
 128.8401898734177
  0
LINE
  8
0
  6
CONTINUOUS
 62
     3
 10
-198.38291139240511
 20
 134.8401898734177
 11
-189.88291139240511
 21
 134.8401898734177
  0
LINE
  8
0
  6
CONTINUOUS
 62
     3
 10
-198.88291139240511
 20
 128.8401898734177
 11
-198.38291139240511
 21
 129.3401898734177
  0
LINE
  8
0
  6
CONTINUOUS
 62
     3
 10
-207.38291139240511
 20
 129.3401898734177
 11
-206.88291139240511
 21
 128.8401898734177
  0
LINE
  8
0
  6
CONTINUOUS
 62
     3
 10
-189.88291139240511
 20
 134.8401898734177
 11
-189.38291139240511
 21
 135.3401898734177
  0
LINE
  8
0
  6
CONTINUOUS
 62
     3
 10
-198.38291139240511
 20
 134.8401898734177
 11
-198.38291139240511
 21
 129.3401898734177
  0
LINE
  8
0
  6
CONTINUOUS
 62
     3
 10
-200.38291139240511
 20
 152.8401898734177
 11
-200.38291139240511
 21
 141.84018987341776
  0
LINE
  8
0
  6
CONTINUOUS
 62
     3
 10
-200.38291139240511
 20
 142.8401898734177
 11
-199.38291139240511
 21
 141.8401898734177
  0
LINE
  8
0
  6
CONTINUOUS
 62
     3
 10
-192.33291139240509
 20
 141.8401898734177
 11
-192.33291139240509
 21
 134.8401898734177
  0
LINE
  8
0
  6
CONTINUOUS
 62
     3
 10
-196.43291139240512
 20
 141.8401898734177
 11
-196.43291139240512
 21
 134.8401898734177
  0
LINE
  8
0
  6
CONTINUOUS
 62
     3
 10
-189.88291139240511
 20
 141.8401898734177
 11
-189.38291139240511
 21
 141.3401898734177
  0
ARC
  8
0
  6
CONTINUOUS
 62
     56
 10
-198.38291139240511
 20
 130.3401898734177
 40
 2.5
 50
-90.000001535234517
 51
 90.000001535234517
  0
CIRCLE
  8
0
  6
CONTINUOUS
 62
     56
 10
-190.69541139240513
 20
 130.3401898734177
 40
 2.5
  0
LINE
  8
0
  6
CONTINUOUS
 62
     56
 10
-198.38291139240511
 20
 132.8401898734177
 11
-198.38291139240511
 21
 127.8401898734177
  0
CIRCLE
  8
0
  6
CONTINUOUS
 62
     3
 10
-136.88291139240513
 20
 130.3401898734177
 40
 2.5
  0
CIRCLE
  8
0
  6
CONTINUOUS
 62
     56
 10
-144.57041139240513
 20
 130.3401898734177
 40
 2.5
  0
CIRCLE
  8
0
  6
CONTINUOUS
 62
     56
 10
-152.25791139240513
 20
 130.3401898734177
 40
 2.5
  0
CIRCLE
  8
0
  6
CONTINUOUS
 62
     56
 10
-159.94541139240513
 20
 130.3401898734177
 40
 2.5
  0
CIRCLE
  8
0
  6
CONTINUOUS
 62
     56
 10
-167.63291139240513
 20
 130.3401898734177
 40
 2.5
  0
CIRCLE
  8
0
  6
CONTINUOUS
 62
     56
 10
-175.32041139240513
 20
 130.3401898734177
 40
 2.5
  0
CIRCLE
  8
0
  6
CONTINUOUS
 62
     56
 10
-183.00791139240513
 20
 130.3401898734177
 40
 2.5
  0
LINE
  8
0
  6
CENTER
 62
     7
 10
-198.38291139240511
 20
 130.3401898734177
 11
-134.38291139240513
 21
 130.3401898734177
  0
LINE
  8
0
  6
CENTER
 62
     7
 10
-198.38291139240511
 20
 132.8401898734177
 11
-134.38291139240513
 21
 132.8401898734177
  0
LINE
  8
0
  6
CENTER
 62
     7
 10
-134.38291139240513
 20
 127.8401898734177
 11
-198.38291139240511
 21
 127.84018987341773
  0
LINE
  8
0
  6
CONTINUOUS
 62
     3
 10
-200.38291139240511
 20
 141.84018987341776
 11
-189.88291139240511
 21
 141.8401898734177
  0
LINE
  8
0
  6
CONTINUOUS
 62
     3
 10
-198.38291139240511
 20
 160.8401898734177
 11
-189.88291139240511
 21
 160.8401898734177
  0
LINE
  8
0
  6
CONTINUOUS
 62
     3
 10
-189.88291139240511
 20
 160.8401898734177
 11
-189.38291139240511
 21
 160.3401898734177
  0
LINE
  8
0
  6
CONTINUOUS
 62
     3
 10
-200.38291139240511
 20
 152.8401898734177
 11
-199.38291139240511
 21
 153.8401898734177
  0
LINE
  8
0
  6
CONTINUOUS
 62
     3
 10
-192.33291139240509
 20
 153.8401898734177
 11
-192.33291139240509
 21
 160.8401898734177
  0
LINE
  8
0
  6
CONTINUOUS
 62
     3
 10
-196.43291139240512
 20
 153.8401898734177
 11
-196.43291139240512
 21
 160.8401898734177
  0
LINE
  8
0
  6
CONTINUOUS
 62
     3
 10
-189.88291139240511
 20
 153.8401898734177
 11
-189.38291139240511
 21
 154.3401898734177
  0
LINE
  8
0
  6
CONTINUOUS
 62
     3
 10
-199.38291139240511
 20
 153.8401898734177
 11
-173.19009154615583
 21
 153.84018987341773
  0
LINE
  8
0
  6
CONTINUOUS
 62
     3
 10
-206.88291139240511
 20
 166.8401898734177
 11
-198.88291139240511
 21
 166.8401898734177
  0
LINE
  8
0
  6
CONTINUOUS
 62
     3
 10
-207.38291139240511
 20
 166.3401898734177
 11
-206.88291139240511
 21
 166.8401898734177
  0
LINE
  8
0
  6
CONTINUOUS
 62
     3
 10
-198.88291139240511
 20
 166.8401898734177
 11
-198.38291139240511
 21
 166.3401898734177
  0
LINE
  8
0
  6
CONTINUOUS
 62
     3
 10
-198.38291139240511
 20
 160.8401898734177
 11
-198.38291139240511
 21
 166.3401898734177
  0
LINE
  8
0
  6
CONTINUOUS
 62
     4
 10
-227.38291139240513
 20
 116.84018987341773
 11
-237.38291139240513
 21
 116.84018987341773
  0
LINE
  8
0
  6
CONTINUOUS
 62
     4
 10
-247.38291139240511
 20
 195.8401898734177
 11
-247.38291139240513
 21
 162.84018987341773
  0
LINE
  8
0
  6
CONTINUOUS
 62
     4
 10
-217.38291139240511
 20
 195.8401898734177
 11
-217.38291139240511
 21
 162.84018987341773
  0
LINE
  8
0
  6
CONTINUOUS
 62
     4
 10
-215.38291139240511
 20
 162.84018987341773
 11
-247.38291139240513
 21
 162.84018987341773
  0
LINE
  8
0
  6
CONTINUOUS
 62
     4
 10
-246.38291139240513
 20
 162.84018987341773
 11
-246.38291139240513
 21
 158.84018987341773
  0
LINE
  8
0
  6
CONTINUOUS
 62
     4
 10
-215.38291139240511
 20
 162.84018987341773
 11
-215.38291139240511
 21
 158.84018987341773
  0
LINE
  8
0
  6
CONTINUOUS
 62
     4
 10
-215.38291139240511
 20
 158.84018987341773
 11
-246.38291139240513
 21
 158.84018987341773
  0
LINE
  8
0
  6
CONTINUOUS
 62
     4
 10
-243.38291139240511
 20
 158.84018987341773
 11
-243.38291139240511
 21
 146.84018987341773
  0
LINE
  8
0
  6
CONTINUOUS
 62
     4
 10
-218.38291139240508
 20
 158.84018987341773
 11
-218.38291139240508
 21
 146.84018987341773
  0
LINE
  8
0
  6
CONTINUOUS
 62
     4
 10
-243.38291139240511
 20
 146.84018987341773
 11
-218.38291139240508
 21
 146.84018987341773
  0
LINE
  8
0
  6
CONTINUOUS
 62
     4
 10
-243.38291139240511
 20
 145.49018987341773
 11
-218.38291139240508
 21
 145.49018987341773
  0
LINE
  8
0
  6
CONTINUOUS
 62
     4
 10
-243.38291139240511
 20
 143.84018987341773
 11
-218.38291139240508
 21
 143.84018987341773
  0
LINE
  8
0
  6
CONTINUOUS
 62
     4
 10
-218.38291139240508
 20
 145.49018987341773
 11
-218.38291139240508
 21
 143.84018987341773
  0
LINE
  8
0
  6
CONTINUOUS
 62
     4
 10
-243.38291139240511
 20
 143.84018987341773
 11
-243.38291139240511
 21
 145.49018987341773
  0
LINE
  8
0
  6
CONTINUOUS
 62
     4
 10
-226.38291139240511
 20
 143.84018987341773
 11
-226.38291139240513
 21
 125.84018987341773
  0
LINE
  8
0
  6
CONTINUOUS
 62
     4
 10
-238.38291139240513
 20
 125.84018987341773
 11
-238.38291139240513
 21
 143.84018987341773
  0
LINE
  8
0
  6
CONTINUOUS
 62
     4
 10
-218.88291139240508
 20
 145.49018987341773
 11
-218.88291139240508
 21
 146.84018987341773
  0
LINE
  8
0
  6
CONTINUOUS
 62
     4
 10
-242.88291139240511
 20
 145.49018987341773
 11
-242.88291139240511
 21
 146.84018987341773
  0
LINE
  8
0
  6
CONTINUOUS
 62
     4
 10
-226.38291139240513
 20
 125.84018987341773
 11
-238.38291139240513
 21
 125.84018987341773
  0
LINE
  8
0
  6
CONTINUOUS
 62
     4
 10
-237.38291139240513
 20
 116.84018987341773
 11
-237.38291139240513
 21
 125.84018987341773
  0
LINE
  8
0
  6
CONTINUOUS
 62
     4
 10
-227.38291139240513
 20
 116.84018987341773
 11
-227.38291139240513
 21
 125.84018987341773
  0
LINE
  8
0
  6
CONTINUOUS
 62
     4
 10
-208.38291139240511
 20
 146.84018987341778
 11
-253.38291139240511
 21
 146.84018987341776
  0
LINE
  8
0
  6
CONTINUOUS
 62
     4
 10
-253.38291139240511
 20
 158.84018987341776
 11
-208.38291139240511
 21
 158.84018987341778
  0
LINE
  8
0
  6
CONTINUOUS
 62
     4
 10
-207.38291139240511
 20
 157.84018987341778
 11
-207.38291139240511
 21
 147.84018987341778
  0
LINE
  8
0
  6
CONTINUOUS
 62
     4
 10
-254.38291139240511
 20
 147.84018987341776
 11
-254.38291139240511
 21
 157.84018987341776
  0
LINE
  8
0
  6
CONTINUOUS
 62
     4
 10
-208.38291139240511
 20
 158.84018987341778
 11
-207.38291139240511
 21
 157.84018987341778
  0
LINE
  8
0
  6
CONTINUOUS
 62
     4
 10
-253.38291139240511
 20
 158.84018987341776
 11
-254.38291139240511
 21
 157.84018987341776
  0
LINE
  8
0
  6
CONTINUOUS
 62
     4
 10
-253.38291139240511
 20
 146.84018987341776
 11
-254.38291139240511
 21
 147.84018987341776
  0
LINE
  8
0
  6
CONTINUOUS
 62
     4
 10
-208.38291139240511
 20
 146.84018987341778
 11
-207.38291139240511
 21
 147.84018987341778
  0
LINE
  8
0
  6
CONTINUOUS
 62
     4
 10
-218.38291139240513
 20
 125.84018987341773
 11
-246.38291139240513
 21
 125.84018987341773
  0
LINE
  8
0
  6
CONTINUOUS
 62
     4
 10
-246.38291139240513
 20
 116.84018987341773
 11
-218.38291139240513
 21
 116.84018987341773
  0
LINE
  8
0
  6
CONTINUOUS
 62
     4
 10
-217.38291139240513
 20
 117.84018987341773
 11
-217.38291139240513
 21
 124.84018987341773
  0
LINE
  8
0
  6
CONTINUOUS
 62
     4
 10
-247.38291139240513
 20
 124.84018987341773
 11
-247.38291139240513
 21
 117.84018987341773
  0
LINE
  8
0
  6
CONTINUOUS
 62
     4
 10
-218.38291139240513
 20
 116.84018987341773
 11
-217.38291139240513
 21
 117.84018987341773
  0
LINE
  8
0
  6
CONTINUOUS
 62
     4
 10
-246.38291139240513
 20
 116.84018987341773
 11
-247.38291139240513
 21
 117.84018987341773
  0
LINE
  8
0
  6
CONTINUOUS
 62
     4
 10
-246.38291139240513
 20
 125.84018987341773
 11
-247.38291139240513
 21
 124.84018987341773
  0
LINE
  8
0
  6
CONTINUOUS
 62
     4
 10
-218.38291139240513
 20
 125.84018987341773
 11
-217.38291139240513
 21
 124.84018987341773
  0
LINE
  8
0
  6
CONTINUOUS
 62
     3
 10
-134.38291139240513
 20
 124.84018987341767
 11
-133.38291139240513
 21
 123.84018987341767
  0
LINE
  8
0
  6
CONTINUOUS
 62
     4
 10
-207.38291139240511
 20
 141.0901898734177
 11
-207.38291139240511
 21
 134.5901898734177
  0
LINE
  8
0
  6
CONTINUOUS
 62
     3
 10
-132.88291139240511
 20
 144.8401898734177
 11
-121.88291139240515
 21
 144.8401898734177
  0
LINE
  8
0
  6
CONTINUOUS
 62
     3
 10
-132.88291139240511
 20
 144.8401898734177
 11
-142.88291139240513
 21
 144.8401898734177
  0
LINE
  8
0
  6
CONTINUOUS
 62
     3
 10
-142.88291139240513
 20
 147.8401898734177
 11
-142.88291139240513
 21
 144.8401898734177
  0
LINE
  8
0
  6
CONTINUOUS
 62
     3
 10
-120.88291139240509
 20
 142.3401898734177
 11
-121.38291139240509
 21
 141.8401898734177
  0
LINE
  8
0
  6
CONTINUOUS
 62
     3
 10
-116.38291139240515
 20
 137.3401898734177
 11
-116.38291139240515
 21
 147.8401898734177
  0
LINE
  8
0
  6
CONTINUOUS
 62
     3
 10
-118.38291139240515
 20
 135.3401898734177
 11
-120.88291139240515
 21
 135.3401898734177
  0
LINE
  8
0
  6
CONTINUOUS
 62
     3
 10
-120.88291139240515
 20
 135.3401898734177
 11
-120.88291139240509
 21
 147.8401898734177
  0
ARC
  8
0
  6
CONTINUOUS
 62
     3
 10
-118.38291139240515
 20
 137.3401898734177
 40
 2
 50
-90.000001535234532
 51
-0.000000000000007
  0
LINE
  8
0
  6
CONTINUOUS
 62
     3
 10
-121.88291139240515
 20
 143.8401898734177
 11
-121.88291139240515
 21
 147.8401898734177
  0
LINE
  8
0
  6
CONTINUOUS
 62
     3
 10
-121.88291139240515
 20
 143.8401898734177
 11
-120.88291139240515
 21
 143.8401898734177
  0
LINE
  8
0
  6
CONTINUOUS
 62
     3
 10
-116.28291139240514
 20
 147.8401898734177
 11
-116.28291139240514
 21
 123.84018987341767
  0
LINE
  8
0
  6
CONTINUOUS
 62
     3
 10
-116.38291139240515
 20
 147.8401898734177
 11
-116.38291139240515
 21
 123.84018987341767
  0
LINE
  8
0
  6
CONTINUOUS
 62
     3
 10
-114.28291139240514
 20
 123.84018987341767
 11
-114.28291139240514
 21
 147.8401898734177
  0
LINE
  8
0
  6
CONTINUOUS
 62
     3
 10
-116.28291139240514
 20
 123.84018987341767
 11
-114.28291139240514
 21
 123.84018987341767
  0
LINE
  8
0
  6
CONTINUOUS
 62
     3
 10
-119.38291139240515
 20
 120.84018987341767
 11
-119.38291139240515
 21
 103.8401898734177
  0
LINE
  8
0
  6
CONTINUOUS
 62
     3
 10
-119.38291139240515
 20
 123.84018987341767
 11
-119.38291139240515
 21
 120.84018987341767
  0
LINE
  8
0
  6
CONTINUOUS
 62
     3
 10
-128.38291139240513
 20
 122.84018987341776
 11
-128.38291139240513
 21
 114.84018987341764
  0
LINE
  8
0
  6
CONTINUOUS
 62
     3
 10
-199.38291139240516
 20
 141.84018987341776
 11
-121.38291139240509
 21
 141.84018987341776
  0
LINE
  8
0
  6
CONTINUOUS
 62
     3
 10
-121.38291139240515
 20
 120.84018987341767
 11
-121.38291139240515
 21
 115.84018987341767
  0
LINE
  8
0
  6
CONTINUOUS
 62
     3
 10
-212.38291139240511
 20
 126.84018987341767
 11
-226.38291139240511
 21
 126.84018987341767
  0
LINE
  8
0
  6
CONTINUOUS
 62
     3
 10
-238.38291139240513
 20
 126.84018987341767
 11
-252.38291139240511
 21
 126.84018987341767
  0
CIRCLE
  8
0
  6
CONTINUOUS
 62
     4
 10
-225.3206054936561
 20
-79.413321090781125
 40
 3.4999999999999996
  0
CIRCLE
  8
0
  6
CONTINUOUS
 62
     4
 10
-216.32060549365616
 20
-72.874438338732915
 40
 3.4999999999999996
  0
ARC
  8
0
  6
CONTINUOUS
 62
     4
 10
-212.88291139240522
 20
-62.294303797468416
 40
 3.4999999999999996
 50
 180.00000307046813
 51
 0.0000000000009305
  0
ARC
  8
0
  6
CONTINUOUS
 62
     4
 10
-248.88291139240511
 20
-62.294303797468416
 40
 3.4999999999999996
 50
 180.00000307046813
 51
 0.0000000000009305
  0
CIRCLE
  8
0
  6
CONTINUOUS
 62
     4
 10
-236.44521729115422
 20
-79.413321090781125
 40
 3.4999999999999996
  0
CIRCLE
  8
0
  6
CONTINUOUS
 62
     4
 10
-245.44521729115417
 20
-72.874438338732915
 40
 3.4999999999999996
  0
ARC
  8
0
  6
CONTINUOUS
 62
     4
 10
-230.88291139240513
 20
-62.294303797468366
 40
 12.5
 50
 180.00000307046903
 51
 0
  0
ARC
  8
0
  6
CONTINUOUS
 62
     4
 10
-230.88291139240513
 20
-62.294303797468366
 40
 14.5
 50
 180.00000307046903
 51
-0.0000000000002246
  0
ARC
  8
0
  6
CONTINUOUS
 62
     4
 10
-230.88291139240513
 20
-62.294303797468366
 40
 21.5
 50
 180.00000307046903
 51
 0
  0
ARC
  8
0
  6
CONTINUOUS
 62
     4
 10
-230.88291139240513
 20
-62.294303797468366
 40
 23.5
 50
 180.00000307046903
 51
-0.0000000000000173
  0
LINE
  8
0
  6
CONTINUOUS
 62
     3
 10
-189.38291139240511
 20
 135.34018987341773
 11
-189.38291139240511
 21
 141.3401898734177
  0
LINE
  8
0
  6
CONTINUOUS
 62
     3
 10
-189.38291139240511
 20
 153.8401898734177
 11
-189.38291139240511
 21
 160.3401898734177
  0
LINE
  8
0
  6
CENTER
 62
     7
 10
-232.38291139240511
 20
 232.67638352551029
 11
-232.38291139240511
 21
 158.84018987341773
  0
LINE
  8
0
  6
CONTINUOUS
 62
     4
 10
-238.38291139240511
 20
 202.8401898734177
 11
-238.38291139240511
 21
 168.8401898734177
  0
LINE
  8
0
  6
CONTINUOUS
 62
     4
 10
-226.38291139240511
 20
 202.8401898734177
 11
-226.38291139240511
 21
 168.8401898734177
  0
LINE
  8
0
  6
CONTINUOUS
 62
     4
 10
-226.38291139240511
 20
 168.8401898734177
 11
-238.38291139240511
 21
 168.8401898734177
  0
LINE
  8
0
  6
CONTINUOUS
 62
     4
 10
-238.38291139240511
 20
 168.8401898734177
 11
-232.38291139240511
 21
 167.3401898734177
  0
LINE
  8
0
  6
CONTINUOUS
 62
     4
 10
-232.38291139240505
 20
 167.3401898734177
 11
-226.38291139240511
 21
 168.8401898734177
  0
LINE
  8
0
  6
CONTINUOUS
 62
     4
 10
-217.38291139240511
 20
 195.8401898734177
 11
-226.38291139240511
 21
 195.8401898734177
  0
LINE
  8
0
  6
CONTINUOUS
 62
     4
 10
-238.38291139240511
 20
 195.8401898734177
 11
-247.38291139240511
 21
 195.8401898734177
  0
LINE
  8
0
  6
CENTER
 62
     7
 10
-136.60356654376554
 20
 134.34018987341764
 11
-137.17499511519412
 21
 126.34018987341766
  0
LINE
  8
0
  6
CENTER
 62
     7
 10
-144.29106654376554
 20
 134.34018987341764
 11
-144.86249511519412
 21
 126.34018987341766
  0
LINE
  8
0
  6
CENTER
 62
     7
 10
-151.97856654376554
 20
 134.34018987341764
 11
-152.54999511519412
 21
 126.34018987341766
  0
LINE
  8
0
  6
CENTER
 62
     7
 10
-159.66606654376554
 20
 134.34018987341764
 11
-160.23749511519412
 21
 126.34018987341766
  0
LINE
  8
0
  6
CENTER
 62
     7
 10
-167.35356654376554
 20
 134.34018987341764
 11
-167.92499511519412
 21
 126.34018987341766
  0
LINE
  8
0
  6
CENTER
 62
     7
 10
-175.04106654376554
 20
 134.34018987341764
 11
-175.61249511519412
 21
 126.34018987341766
  0
LINE
  8
0
  6
CENTER
 62
     7
 10
-182.72856654376554
 20
 134.34018987341764
 11
-183.29999511519412
 21
 126.34018987341766
  0
LINE
  8
0
  6
CENTER
 62
     7
 10
-190.41606654376554
 20
 134.34018987341764
 11
-190.98749511519412
 21
 126.34018987341766
  0
ARC
  8
0
  6
CONTINUOUS
 62
     4
 10
-241.14605082732959
 20
 139.4651898734177
 40
 2.1666645
 50
 131.40955938346229
 51
-131.40955938346229
  0
ARC
  8
0
  6
CONTINUOUS
 62
     4
 10
-244.01227486292782
 20
 136.2151898734177
 40
 2.1666645
 50
-48.59044368700674
 51
 48.59044368700674
  0
ARC
  8
0
  6
CONTINUOUS
 62
     4
 10
-244.01227486292782
 20
 139.4651898734177
 40
 2.1666645
 50
-48.59044368700674
 51
 48.59044368700674
  0
LINE
  8
0
  6
CONTINUOUS
 62
     4
 10
-221.41249834512871
 20
 134.5901898734177
 11
-207.38291139240511
 21
 134.5901898734177
  0
LINE
  8
0
  6
CONTINUOUS
 62
     4
 10
-221.41249834512871
 20
 141.0901898734177
 11
-207.38291139240511
 21
 141.0901898734177
  0
ARC
  8
0
  6
CONTINUOUS
 62
     4
 10
-219.97938632732959
 20
 139.4651898734177
 40
 2.1666645
 50
 131.40955938346229
 51
-131.40955938346229
  0
ARC
  8
0
  6
CONTINUOUS
 62
     4
 10
-222.84561036292783
 20
 136.2151898734177
 40
 2.1666645
 50
-48.59044368700674
 51
 48.59044368700674
  0
ARC
  8
0
  6
CONTINUOUS
 62
     4
 10
-219.97938632732959
 20
 136.2151898734177
 40
 2.1666645
 50
 131.40955938346229
 51
-131.40955938346229
  0
LINE
  8
0
  6
CENTER
 62
     7
 10
-136.60356654376554
 20
-75.794303797468416
 11
-137.17499511519412
 21
-83.794303797468416
  0
LINE
  8
0
  6
CENTER
 62
     7
 10
-144.29106654376554
 20
-75.794303797468416
 11
-144.86249511519412
 21
-83.794303797468416
  0
LINE
  8
0
  6
CENTER
 62
     7
 10
-151.97856654376554
 20
-75.794303797468416
 11
-152.54999511519412
 21
-83.794303797468416
  0
LINE
  8
0
  6
CENTER
 62
     7
 10
-159.66606654376554
 20
-75.794303797468416
 11
-160.23749511519412
 21
-83.794303797468416
  0
LINE
  8
0
  6
CENTER
 62
     7
 10
-167.35356654376554
 20
-75.794303797468416
 11
-167.92499511519412
 21
-83.794303797468416
  0
LINE
  8
0
  6
CENTER
 62
     7
 10
-175.04106654376554
 20
-75.794303797468416
 11
-175.61249511519412
 21
-83.794303797468416
  0
LINE
  8
0
  6
CENTER
 62
     7
 10
-182.72856654376554
 20
-75.794303797468416
 11
-183.29999511519412
 21
-83.794303797468416
  0
LINE
  8
0
  6
CENTER
 62
     7
 10
-190.41606654376554
 20
-75.794303797468416
 11
-190.98749511519412
 21
-83.794303797468416
  0
LINE
  8
0
  6
CONTINUOUS
 62
     3
 10
-92.38291139240512
 20
 147.8401898734177
 11
-92.382911392405234
 21
 135.3401898734177
  0
LINE
  8
0
  6
CONTINUOUS
 62
     3
 10
-109.28291139240524
 20
 135.3401898734177
 11
-92.382911392405234
 21
 135.3401898734177
  0
LINE
  8
0
  6
CONTINUOUS
 62
     3
 10
-92.382911392405234
 20
 135.3401898734177
 11
-91.382911392405234
 21
 147.8401898734177
  0
LINE
  8
0
  6
CONTINUOUS
 62
     3
 10
-109.28291139240514
 20
 131.8401898734177
 11
-114.28291139240514
 21
 131.8401898734177
  0
LINE
  8
0
  6
CONTINUOUS
 62
     3
 10
-109.28291139240514
 20
 131.8401898734177
 11
-109.28291139240514
 21
 135.3401898734177
  0
LINE
  8
0
  6
CONTINUOUS
 62
     3
 10
-114.28291139240524
 20
 143.8401898734177
 11
-105.38291139240523
 21
 143.8401898734177
  0
LINE
  8
0
  6
CONTINUOUS
 62
     3
 10
-113.78291139240524
 20
 138.84018987341773
 11
-113.78291139240524
 21
 143.8401898734177
  0
ARC
  8
0
  6
CONTINUOUS
 62
     3
 10
-111.78291139240524
 20
 138.84018987341773
 40
 2
 50
 180.00000307046903
 51
-90.000001535234532
  0
LINE
  8
0
  6
CONTINUOUS
 62
     3
 10
-96.782911392405239
 20
 138.3401898734177
 11
-104.78291139240524
 21
 138.34018987341773
  0
LINE
  8
0
  6
CONTINUOUS
 62
     3
 10
-104.78291139240524
 20
 136.84018987341773
 11
-111.78291139240524
 21
 136.84018987341773
  0
LINE
  8
0
  6
CONTINUOUS
 62
     3
 10
-104.78291139240524
 20
 136.84018987341773
 11
-104.78291139240524
 21
 138.34018987341776
  0
LINE
  8
0
  6
CONTINUOUS
 62
     3
 10
-113.78291139240524
 20
 143.5901898734177
 11
-109.78291139240524
 21
 143.5901898734177
  0
LINE
  8
0
  6
CONTINUOUS
 62
     3
 10
-109.78291139240524
 20
 143.8401898734177
 11
-109.78291139240524
 21
 143.5901898734177
  0
LINE
  8
0
  6
CONTINUOUS
 62
     3
 10
-109.78291139240524
 20
 143.8401898734177
 11
-100.78291139240524
 21
 143.8401898734177
  0
LINE
  8
0
  6
CONTINUOUS
 62
     3
 10
-113.78291139240524
 20
 140.3401898734177
 11
-114.03291139240524
 21
 140.3401898734177
  0
LINE
  8
0
  6
CONTINUOUS
 62
     3
 10
-114.03291139240524
 20
 141.3401898734177
 11
-113.78291139240524
 21
 141.3401898734177
  0
LINE
  8
0
  6
CONTINUOUS
 62
     3
 10
-114.28291139240524
 20
 141.0901898734177
 11
-114.28291139240524
 21
 140.5901898734177
  0
ARC
  8
0
  6
CONTINUOUS
 62
     3
 10
-114.03291139240524
 20
 141.0901898734177
 40
 0.25
 50
 90.000001535234517
 51
 180.00000307046903
  0
ARC
  8
0
  6
CONTINUOUS
 62
     3
 10
-114.03291139240524
 20
 140.5901898734177
 40
 0.25
 50
 180.00000307046903
 51
-90.000001535234517
  0
LINE
  8
0
  6
CONTINUOUS
 62
     3
 10
-96.782911392405239
 20
 138.3401898734177
 11
-96.782911392405239
 21
 147.8401898734177
  0
LINE
  8
0
  6
CONTINUOUS
 62
     3
 10
-100.78291139240524
 20
 147.8401898734177
 11
-100.78291139240524
 21
 143.8401898734177
  0
LINE
  8
0
  6
CONTINUOUS
 62
     3
 10
-105.28291139240524
 20
 143.8401898734177
 11
-105.28291139240524
 21
 147.8401898734177
  0
CIRCLE
  8
0
  6
PHANTOM2
 62
     56
 10
-232.38291425993938
 20
-62.29430379746838
 40
 25.000002867534256
  0
TEXT
  8
218
  6
CONTINUOUS
 62
     96
 10
 355.74128955762666
 20
-118.50728585223867
 11
 391.74128955762666
 21
-118.50728585223864
 40
 6
 41
 1
  1
Ｍ６×３５Ｌ
 50
 0.0000000000000495
 72
  5
  0
TEXT
  8
218
  6
CONTINUOUS
 62
     96
 10
 355.74128955762666
 20
-77.549571120531539
 11
 385.74128955762666
 21
-77.54957112053151
 40
 6
 41
 1
  1
＃６００５
 50
 0.0000000000000495
 72
  5
  0
TEXT
  8
218
  6
CONTINUOUS
 62
     96
 10
 355.74128955762666
 20
-46.831292604532223
 11
 385.74128955762666
 21
-46.831292604532202
 40
 6
 41
 1
  1
＃６２００
 50
 0.0000000000000495
 72
  5
  0
TEXT
  8
218
  6
CONTINUOUS
 62
     96
 10
 355.74128955762666
 20
-26.352438962106678
 11
 397.74128955762666
 21
-26.352438962106639
 40
 6
 41
 1
  1
ＴＣ１２２２７
 50
 0.0000000000000495
 72
  5
  0
LINE
  8
218
  6
CONTINUOUS
 62
     7
 10
 302.57850795824419
 20
-212.78270042194086
 11
 302.57850795824419
 21
-7.994164455953011
  0
LINE
  8
218
  6
CONTINUOUS
 62
     7
 10
 338.92276755996915
 20
-212.78270042194094
 11
 338.92276755996915
 21
-7.994164455953011
  0
TEXT
  8
218
  6
CONTINUOUS
 62
     96
 10
 314.75063775910667
 20
-205.54327365801171
 11
 326.75063775910667
 21
-205.54327365801171
 40
 6
 41
 1
  1
材質
 50
 0.0000000000000495
 72
  5
  0
TEXT
  8
218
  6
CONTINUOUS
 62
     96
 10
 304.55063775910668
 20
-179.64470763608298
 11
 336.95063775910666
 21
-179.64470763608296
 40
 5.4000000000000004
 41
 1
  1
SUS304
 50
 0.0000000000000495
 72
  5
  0
TEXT
  8
218
  6
CONTINUOUS
 62
     96
 10
 307.25063775910667
 20
-169.40527703415864
 11
 334.25063775910667
 21
-169.40527703415862
 40
 5.4000000000000004
 41
 1
  1
AC-2B
 50
 0.0000000000000495
 72
  5
  0
TEXT
  8
218
  6
CONTINUOUS
 62
     96
 10
 309.95063775910666
 20
-189.88413445729572
 11
 331.55063775910668
 21
-189.88413445729569
 40
 5.4000000000000004
 41
 1
  1
BC-3
 50
 0.0000000000000495
 72
  5
  0
TEXT
  8
218
  6
CONTINUOUS
 62
     96
 10
 304.55063775910668
 20
-159.16584826530655
 11
 336.95063775910666
 21
-159.16584826530647
 40
 5.4000000000000004
 41
 1
  1
SUS304
 50
 0.0000000000000495
 72
  5
  0
TEXT
  8
218
  6
CONTINUOUS
 62
     96
 10
 309.95063775910666
 20
-148.92642339173312
 11
 331.55063775910668
 21
-148.9264233917331
 40
 5.4000000000000004
 41
 1
  1
S45C
 50
 0.0000000000000495
 72
  5
  0
TEXT
  8
218
  6
CONTINUOUS
 62
     96
 10
 309.95063775910666
 20
-138.68699840359253
 11
 331.55063775910668
 21
-138.6869984035925
 40
 5.4000000000000004
 41
 1
  1
S45C
 50
 0.0000000000000495
 72
  5
  0
TEXT
  8
218
  6
CONTINUOUS
 62
     96
 10
 309.95063775910666
 20
-128.4475735300191
 11
 331.55063775910668
 21
-128.4475735300191
 40
 5.4000000000000004
 41
 1
  1
S45C
 50
 0.0000000000000495
 72
  5
  0
TEXT
  8
218
  6
CONTINUOUS
 62
     96
 10
 307.25063775910667
 20
-107.96871988759345
 11
 334.25063775910667
 21
-107.96871988759342
 40
 5.4000000000000004
 41
 1
  1
ジュラコン
 50
 0.0000000000000495
 72
  5
  0
TEXT
  8
218
  6
CONTINUOUS
 62
     96
 10
 307.25063775910667
 20
-87.489870025879455
 11
 334.25063775910667
 21
-87.489870025879426
 40
 5.4000000000000004
 41
 1
  1
SS400
 50
 0.0000000000000495
 72
  5
  0
TEXT
  8
218
  6
CONTINUOUS
 62
     96
 10
 309.95063775910666
 20
-56.77158772916863
 11
 331.55063775910668
 21
-56.771587729168623
 40
 5.4000000000000004
 41
 1
  1
S45C
 50
 0.0000000000000495
 72
  5
  0
LINE
  8
0
  6
CONTINUOUS
 62
     3
 10
-76.382911392405049
 20
 35.20569620253162
 11
-76.382911392405049
 21
 30.205696202531623
  0
LINE
  8
0
  6
CONTINUOUS
 62
     3
 10
-122.38291139240505
 20
 35.20569620253162
 11
-122.38291139240505
 21
 30.205696202531623
  0
LINE
  8
0
  6
CONTINUOUS
 62
     3
 10
-122.38291139240505
 20
 30.205696202531623
 11
-76.382911392405049
 21
 30.205696202531623
  0
LINE
  8
0
  6
CONTINUOUS
 62
     3
 10
-114.38291139240505
 20
 16.20569620253162
 11
-114.38291139240505
 21
 11.20569620253162
  0
LINE
  8
0
  6
CONTINUOUS
 62
     3
 10
-84.382911392405049
 20
 11.20569620253162
 11
-84.382911392405049
 21
 16.20569620253162
  0
LINE
  8
0
  6
CONTINUOUS
 62
     3
 10
-113.38291139240505
 20
 10.20569620253162
 11
-85.382911392405049
 21
 10.20569620253162
  0
LINE
  8
0
  6
CONTINUOUS
 62
     3
 10
-76.382911392405077
 20
-159.79430379746839
 11
-76.382911392405077
 21
-154.79430379746839
  0
LINE
  8
0
  6
CONTINUOUS
 62
     3
 10
-122.38291139240506
 20
-159.79430379746839
 11
-122.38291139240506
 21
-154.79430379746839
  0
LINE
  8
0
  6
CONTINUOUS
 62
     3
 10
-114.38291139240508
 20
-154.79430379746839
 11
-114.38291139240508
 21
-135.79430379746839
  0
LINE
  8
0
  6
CONTINUOUS
 62
     3
 10
-84.382911392405077
 20
-154.79430379746839
 11
-84.382911392405077
 21
-135.79430379746839
  0
LINE
  8
0
  6
CONTINUOUS
 62
     3
 10
-106.88291139240508
 20
-146.79430379746839
 11
-91.882911392405077
 21
-146.79430379746839
  0
LINE
  8
0
  6
CONTINUOUS
 62
     3
 10
-106.88291139240508
 20
-146.79430379746839
 11
-108.03291139240508
 21
-134.79430379746839
  0
LINE
  8
0
  6
CONTINUOUS
 62
     3
 10
-91.882911392405077
 20
-146.79430379746839
 11
-90.732911392405072
 21
-134.79430379746839
  0
LINE
  8
0
  6
CONTINUOUS
 62
     3
 10
-113.38291139240508
 20
-134.79430379746839
 11
-108.03291139240517
 21
-134.79430379746839
  0
LINE
  8
0
  6
CONTINUOUS
 62
     3
 10
-90.732911392405157
 20
-134.79430379746918
 11
-85.382911392405077
 21
-134.79430379746918
  0
LINE
  8
0
  6
CONTINUOUS
 62
     3
 10
-108.03291139240517
 20
-125.79430379746839
 11
-108.03291139240517
 21
-134.79430379746759
  0
LINE
  8
0
  6
CONTINUOUS
 62
     3
 10
-90.732911392405157
 20
-134.79430379746918
 11
-90.732911392405157
 21
-125.79430379746839
  0
LINE
  8
0
  6
CONTINUOUS
 62
     3
 10
-91.882911392405191
 20
-146.79430379746839
 11
-91.882911392405205
 21
-159.79430379746839
  0
LINE
  8
0
  6
CONTINUOUS
 62
     3
 10
-106.88291139240519
 20
-146.79430379746839
 11
-106.88291139240521
 21
-159.79430379746839
  0
LINE
  8
0
  6
CONTINUOUS
 62
     3
 10
-122.38291139240506
 20
-154.79430379746839
 11
-114.38291139240508
 21
-154.79430379746839
  0
LINE
  8
0
  6
CONTINUOUS
 62
     3
 10
-84.382911392405077
 20
-154.79430379746839
 11
-76.382911392405077
 21
-154.79430379746839
  0
LINE
  8
0
  6
CONTINUOUS
 62
     3
 10
-146.88291139240505
 20
 16.20569620253162
 11
-51.882911392405049
 21
 16.20569620253162
  0
LINE
  8
0
  6
CONTINUOUS
 62
     3
 10
-51.882911392405049
 20
 30.205696202531623
 11
-146.88291139240505
 21
 30.205696202531623
  0
LINE
  8
0
  6
CONTINUOUS
 62
     3
 10
-146.88291139240505
 20
 30.205696202531623
 11
-146.88291139240505
 21
 16.20569620253162
  0
LINE
  8
0
  6
CONTINUOUS
 62
     3
 10
-51.882911392405049
 20
 16.20569620253162
 11
-51.882911392405049
 21
 30.205696202531623
  0
LINE
  8
0
  6
CONTINUOUS
 62
     3
 10
-51.882911392405077
 20
-140.79430379746842
 11
-51.882911392405084
 21
-154.79430379746842
  0
LINE
  8
0
  6
CONTINUOUS
 62
     3
 10
-146.88291139240511
 20
-154.79430379746839
 11
-146.88291139240505
 21
-140.79430379746839
  0
LINE
  8
0
  6
CONTINUOUS
 62
     3
 10
-146.88291139240505
 20
-140.79430379746839
 11
-114.38291139240508
 21
-140.79430379746839
  0
LINE
  8
0
  6
CONTINUOUS
 62
     3
 10
-84.382911392405077
 20
-140.79430379746839
 11
-51.882911392405077
 21
-140.79430379746842
  0
LINE
  8
0
  6
CONTINUOUS
 62
     3
 10
-51.882911392405084
 20
-154.79430379746842
 11
-76.382911392405077
 21
-154.79430379746842
  0
LINE
  8
0
  6
CONTINUOUS
 62
     3
 10
-122.38291139240506
 20
-154.79430379746839
 11
-146.88291139240511
 21
-154.79430379746839
  0
LINE
  8
0
  6
CENTER
 62
     7
 10
-64.382911392405035
 20
 38.059632120253141
 11
-64.382911392405063
 21
 8.2039655854430293
  0
LINE
  8
0
  6
CENTER
 62
     7
 10
-134.38291139240505
 20
 38.059632120253198
 11
-134.38291139240508
 21
 8.2039655854430862
  0
LINE
  8
0
  6
CENTER
 62
     7
 10
-64.382911392405063
 20
-162.64823971518993
 11
-64.382911392405092
 21
-132.7925731803798
  0
LINE
  8
0
  6
CENTER
 62
     7
 10
-134.38291139240511
 20
-162.64823971518996
 11
-134.38291139240511
 21
-132.79257318037986
  0
LINE
  8
0
  6
CONTINUOUS
 62
     3
 10
-56.882911392405084
 20
-140.79430379746842
 11
-56.88291139240507
 21
-154.79430379746842
  0
LINE
  8
0
  6
CONTINUOUS
 62
     3
 10
-71.882911392405077
 20
-154.79430379746842
 11
-71.882911392405092
 21
-140.79430379746842
  0
LINE
  8
0
  6
CONTINUOUS
 62
     3
 10
-126.88291139240509
 20
-140.79430379746839
 11
-126.88291139240509
 21
-154.79430379746839
  0
LINE
  8
0
  6
CONTINUOUS
 62
     3
 10
-141.88291139240511
 20
-140.79430379746839
 11
-141.88291139240511
 21
-154.79430379746839
  0
LINE
  8
0
  6
CENTER
 62
     7
 10
-115.38291139240522
 20
-158.79430379746839
 11
-115.38291139240522
 21
-160.79430379746839
  0
LINE
  8
0
  6
CENTER
 62
     7
 10
-119.38291139240522
 20
-158.79430379746839
 11
-119.38291139240522
 21
-160.79430379746839
  0
LINE
  8
0
  6
CONTINUOUS
 62
     3
 10
-79.632911392405219
 20
-159.79430379746839
 11
-79.382911392405219
 21
-159.29430379746839
  0
LINE
  8
0
  6
CONTINUOUS
 62
     3
 10
-79.382911392405219
 20
-159.29430379746839
 11
-79.132911392405219
 21
-159.79430379746839
  0
LINE
  8
0
  6
CONTINUOUS
 62
     3
 10
-83.632911392405219
 20
-159.79430379746839
 11
-83.382911392405219
 21
-159.29430379746839
  0
LINE
  8
0
  6
CONTINUOUS
 62
     3
 10
-83.382911392405219
 20
-159.29430379746839
 11
-83.132911392405219
 21
-159.79430379746839
  0
LINE
  8
0
  6
CONTINUOUS
 62
     3
 10
-115.63291139240522
 20
-159.79430379746839
 11
-115.38291139240522
 21
-159.29430379746839
  0
LINE
  8
0
  6
CONTINUOUS
 62
     3
 10
-115.38291139240522
 20
-159.29430379746839
 11
-115.13291139240522
 21
-159.79430379746839
  0
LINE
  8
0
  6
CONTINUOUS
 62
     3
 10
-119.63291139240522
 20
-159.79430379746839
 11
-119.38291139240522
 21
-159.29430379746839
  0
LINE
  8
0
  6
CONTINUOUS
 62
     3
 10
-119.38291139240522
 20
-159.29430379746839
 11
-119.13291139240522
 21
-159.79430379746839
  0
LINE
  8
0
  6
CENTER
 62
     7
 10
-83.382911392405191
 20
-158.79430379746839
 11
-83.382911392405191
 21
-160.79430379746839
  0
LINE
  8
0
  6
CENTER
 62
     7
 10
-79.382911392405191
 20
-158.79430379746839
 11
-79.382911392405191
 21
-160.79430379746839
  0
LINE
  8
0
  6
CONTINUOUS
 62
     3
 10
-79.132911392405234
 20
-159.79430379746839
 11
-76.382911392405077
 21
-159.79430379746839
  0
LINE
  8
0
  6
CONTINUOUS
 62
     3
 10
-83.132911392405234
 20
-159.79430379746839
 11
-79.632911392405219
 21
-159.79430379746839
  0
LINE
  8
0
  6
CONTINUOUS
 62
     3
 10
-122.38291139240506
 20
-159.79430379746839
 11
-119.63291139240522
 21
-159.79430379746839
  0
LINE
  8
0
  6
CONTINUOUS
 62
     3
 10
-119.13291139240522
 20
-159.79430379746839
 11
-115.63291139240522
 21
-159.79430379746839
  0
LINE
  8
0
  6
CONTINUOUS
 62
     3
 10
-115.13291139240522
 20
-159.79430379746839
 11
-83.632911392405219
 21
-159.79430379746839
  0
LINE
  8
0
  6
CENTER
 62
     7
 10
-119.38291139240519
 20
 34.205696202531612
 11
-119.38291139240519
 21
 36.205696202531612
  0
LINE
  8
0
  6
CONTINUOUS
 62
     3
 10
-119.63291139240519
 20
 35.205696202531612
 11
-119.38291139240519
 21
 34.705696202531612
  0
LINE
  8
0
  6
CONTINUOUS
 62
     3
 10
-119.38291139240519
 20
 34.705696202531612
 11
-119.13291139240519
 21
 35.205696202531612
  0
LINE
  8
0
  6
CENTER
 62
     7
 10
-115.38291139240519
 20
 34.205696202531612
 11
-115.38291139240519
 21
 36.205696202531612
  0
LINE
  8
0
  6
CONTINUOUS
 62
     3
 10
-115.63291139240519
 20
 35.205696202531612
 11
-115.38291139240519
 21
 34.705696202531612
  0
LINE
  8
0
  6
CONTINUOUS
 62
     3
 10
-115.38291139240519
 20
 34.705696202531612
 11
-115.13291139240519
 21
 35.205696202531612
  0
LINE
  8
0
  6
CONTINUOUS
 62
     3
 10
-83.632911392405191
 20
 35.205696202531612
 11
-83.382911392405191
 21
 34.705696202531612
  0
LINE
  8
0
  6
CONTINUOUS
 62
     3
 10
-83.382911392405191
 20
 34.705696202531612
 11
-83.132911392405191
 21
 35.205696202531612
  0
LINE
  8
0
  6
CENTER
 62
     7
 10
-83.382911392405163
 20
 34.205696202531612
 11
-83.382911392405163
 21
 36.205696202531612
  0
LINE
  8
0
  6
CONTINUOUS
 62
     3
 10
-79.632911392405191
 20
 35.205696202531612
 11
-79.382911392405191
 21
 34.705696202531612
  0
LINE
  8
0
  6
CONTINUOUS
 62
     3
 10
-79.382911392405191
 20
 34.705696202531612
 11
-79.132911392405191
 21
 35.205696202531612
  0
LINE
  8
0
  6
CENTER
 62
     7
 10
-79.382911392405163
 20
 34.205696202531612
 11
-79.382911392405163
 21
 36.205696202531612
  0
LINE
  8
0
  6
CONTINUOUS
 62
     3
 10
-83.132911392405191
 20
 35.205696202531612
 11
-79.632911392405205
 21
 35.205696202531641
  0
LINE
  8
0
  6
CONTINUOUS
 62
     3
 10
-79.132911392405191
 20
 35.205696202531612
 11
-76.382911392405049
 21
 35.20569620253162
  0
LINE
  8
0
  6
CONTINUOUS
 62
     3
 10
-115.13291139240518
 20
 35.205696202531641
 11
-83.632911392405191
 21
 35.205696202531612
  0
LINE
  8
0
  6
CONTINUOUS
 62
     3
 10
-122.38291139240505
 20
 35.20569620253162
 11
-119.63291139240519
 21
 35.205696202531641
  0
LINE
  8
0
  6
CONTINUOUS
 62
     3
 10
-119.13291139240518
 20
 35.205696202531641
 11
-115.63291139240519
 21
 35.205696202531641
  0
LINE
  8
0
  6
CONTINUOUS
 62
     3
 10
-84.382911392405077
 20
-135.79430379746839
 11
-85.382911392405077
 21
-134.79430379746918
  0
LINE
  8
0
  6
CONTINUOUS
 62
     3
 10
-114.38291139240508
 20
-135.79430379746839
 11
-113.38291139240508
 21
-134.79430379746839
  0
LINE
  8
0
  6
CONTINUOUS
 62
     3
 10
-114.38291139240505
 20
 11.20569620253162
 11
-113.38291139240505
 21
 10.20569620253162
  0
LINE
  8
0
  6
CONTINUOUS
 62
     3
 10
-85.382911392405049
 20
 10.20569620253162
 11
-84.382911392405049
 21
 11.20569620253162
  0
LINE
  8
0
  6
CONTINUOUS
 62
     3
 10
 9.1170886075949511
 20
 3.2056962025316054
 11
 32.117088607594951
 21
 3.2056962025316054
  0
LINE
  8
0
  6
CONTINUOUS
 62
     3
 10
 32.117088607594951
 20
 22.205696202531605
 11
 9.1170886075949511
 21
 22.205696202531605
  0
LINE
  8
0
  6
CONTINUOUS
 62
     3
 10
 8.1170886075949511
 20
 21.205696202531605
 11
 8.1170886075949511
 21
 4.2056962025316054
  0
LINE
  8
0
  6
CONTINUOUS
 62
     3
 10
 33.117088607594951
 20
 4.2056962025316054
 11
 33.117088607594951
 21
 21.205696202531605
  0
LINE
  8
0
  6
CONTINUOUS
 62
     3
 10
 9.1170886075949511
 20
 22.205696202531605
 11
 8.1170886075949511
 21
 21.205696202531605
  0
LINE
  8
0
  6
CONTINUOUS
 62
     3
 10
 32.117088607594951
 20
 22.205696202531605
 11
 33.117088607594951
 21
 21.205696202531605
  0
LINE
  8
0
  6
CONTINUOUS
 62
     3
 10
 32.117088607594951
 20
 3.2056962025316054
 11
 33.117088607594951
 21
 4.2056962025316054
  0
LINE
  8
0
  6
CONTINUOUS
 62
     3
 10
 9.1170886075949511
 20
 3.2056962025316054
 11
 8.1170886075949511
 21
 4.2056962025316054
  0
LINE
  8
0
  6
CONTINUOUS
 62
     2
 10
 32.617088607594951
 20
 18.205696202531563
 11
 32.617088607594951
 21
 7.2056962025315912
  0
LINE
  8
0
  6
CONTINUOUS
 62
     2
 10
 32.117088607594951
 20
 17.205696202531563
 11
 32.117088607594951
 21
 8.2056962025315912
  0
LINE
  8
0
  6
CONTINUOUS
 62
     2
 10
 31.617088607594951
 20
 16.205696202531556
 11
 31.617088607594951
 21
 9.2056962025315912
  0
LINE
  8
0
  6
CONTINUOUS
 62
     2
 10
 31.117088607594951
 20
 15.205696202531556
 11
 31.117088607594951
 21
 10.205696202531591
  0
LINE
  8
0
  6
CONTINUOUS
 62
     2
 10
 30.617088607594951
 20
 14.205696202531556
 11
 30.617088607594951
 21
 10.205696202531591
  0
LINE
  8
0
  6
CONTINUOUS
 62
     2
 10
 8.6170886075949085
 20
 18.205696202531584
 11
 8.6170886075948943
 21
 7.2056962025316125
  0
LINE
  8
0
  6
CONTINUOUS
 62
     2
 10
 9.1170886075949085
 20
 17.205696202531577
 11
 9.1170886075948943
 21
 8.2056962025316054
  0
LINE
  8
0
  6
CONTINUOUS
 62
     2
 10
 9.6170886075949049
 20
 16.20569620253157
 11
 9.6170886075948943
 21
 9.2056962025316054
  0
LINE
  8
0
  6
CONTINUOUS
 62
     2
 10
 10.117088607594905
 20
 15.205696202531572
 11
 10.117088607594894
 21
 10.205696202531605
  0
LINE
  8
0
  6
CONTINUOUS
 62
     2
 10
 10.617088607594901
 20
 14.20569620253157
 11
 10.617088607594894
 21
 10.205696202531605
  0
LINE
  8
0
  6
CONTINUOUS
 62
     3
 10
 8.1170886075949511
 20
-128.79430379746839
 11
 8.1170886075949511
 21
-145.79430379746839
  0
LINE
  8
0
  6
CONTINUOUS
 62
     3
 10
 33.117088607594951
 20
-145.79430379746839
 11
 33.117088607594951
 21
-128.79430379746839
  0
LINE
  8
0
  6
CONTINUOUS
 62
     3
 10
 9.1170886075949511
 20
-127.79430379746839
 11
 8.1170886075949511
 21
-128.79430379746839
  0
LINE
  8
0
  6
CONTINUOUS
 62
     3
 10
 32.117088607594951
 20
-127.79430379746839
 11
 33.117088607594951
 21
-128.79430379746839
  0
LINE
  8
0
  6
CONTINUOUS
 62
     3
 10
 32.117088607594951
 20
-146.79430379746839
 11
 33.117088607594951
 21
-145.79430379746839
  0
LINE
  8
0
  6
CONTINUOUS
 62
     3
 10
 9.1170886075949511
 20
-146.79430379746839
 11
 8.1170886075949511
 21
-145.79430379746839
  0
LINE
  8
0
  6
CONTINUOUS
 62
     3
 10
 29.117088607594809
 20
-127.79430379746839
 11
 29.117088607594809
 21
-136.79430379746839
  0
LINE
  8
0
  6
CONTINUOUS
 62
     3
 10
 12.117088607594813
 20
-127.79430379746839
 11
 12.117088607594813
 21
-136.79430379746839
  0
LINE
  8
0
  6
CONTINUOUS
 62
     3
 10
 29.617088607594802
 20
-136.79430379746839
 11
 29.617088607594802
 21
-140.79430379746839
  0
LINE
  8
0
  6
CONTINUOUS
 62
     3
 10
 11.617088607594805
 20
-136.79430379746839
 11
 11.617088607594802
 21
-140.79430379746839
  0
LINE
  8
0
  6
CONTINUOUS
 62
     3
 10
 11.617088607594805
 20
-136.79430379746839
 11
 12.117088607594813
 21
-136.79430379746839
  0
LINE
  8
0
  6
CONTINUOUS
 62
     3
 10
 29.117088607594809
 20
-136.79430379746839
 11
 29.617088607594802
 21
-136.79430379746839
  0
LINE
  8
0
  6
CONTINUOUS
 62
     3
 10
 26.117088607594798
 20
-140.79430379746839
 11
 26.117088607594795
 21
-146.79430379746839
  0
LINE
  8
0
  6
CONTINUOUS
 62
     3
 10
 15.117088607594797
 20
-146.79430379746839
 11
 15.117088607594804
 21
-140.79430379746839
  0
LINE
  8
0
  6
CONTINUOUS
 62
     3
 10
 9.1170886075949511
 20
-146.79430379746839
 11
 15.117088607594797
 21
-146.79430379746839
  0
LINE
  8
0
  6
CONTINUOUS
 62
     3
 10
 26.117088607594795
 20
-146.79430379746839
 11
 32.117088607594951
 21
-146.79430379746839
  0
LINE
  8
0
  6
CONTINUOUS
 62
     3
 10
 11.617088607594802
 20
-140.79430379746839
 11
 16.950421940928152
 21
-140.79430379746839
  0
LINE
  8
0
  6
CONTINUOUS
 62
     3
 10
 24.283755274261484
 20
-140.79430379746839
 11
 29.617088607594802
 21
-140.79430379746839
  0
LINE
  8
0
  6
CONTINUOUS
 62
     3
 10
 32.117088607594951
 20
-127.79430379746839
 11
 28.117088607594816
 21
-127.79430379746839
  0
LINE
  8
0
  6
CONTINUOUS
 62
     3
 10
 13.117088607594802
 20
-127.79430379746839
 11
 9.1170886075949511
 21
-127.79430379746839
  0
LINE
  8
0
  6
CONTINUOUS
 62
     3
 10
-105.28291139240514
 20
-65.794303797468388
 11
-100.78291139240514
 21
-65.794303797468388
  0
LINE
  8
0
  6
CONTINUOUS
 62
     3
 10
 14.71708860759486
 20
-65.794303797468388
 11
 19.21708860759486
 21
-65.794303797468388
  0
LINE
  8
0
  6
CONTINUOUS
 62
     3
 10
-105.28291139240524
 20
 144.3401898734177
 11
-100.78291139240524
 21
 144.3401898734177
  0
LINE
  8
0
  6
CONTINUOUS
 62
     3
 10
-127.17143027390102
 20
-76.294303797468388
 11
-116.38291139240515
 21
-76.294303797468388
  0
LINE
  8
0
  6
CONTINUOUS
 62
     3
 10
-134.38291139240513
 20
-73.294303797468388
 11
-127.17143027390102
 21
-73.294303797468388
  0
LINE
  8
0
  6
CONTINUOUS
 62
     3
 10
-127.17143027390102
 20
-73.294303797468388
 11
-127.17143027390102
 21
-76.294303797468388
  0
LINE
  8
0
  6
CONTINUOUS
 62
     4
 10
-134.38291139240513
 20
-69.294303797468373
 11
-181.38291139240513
 21
-69.294303797468359
  0
LINE
  8
0
  6
CONTINUOUS
 62
     4
 10
-139.38291139240513
 20
-75.294303797468373
 11
-181.38291139240513
 21
-75.294303797468359
  0
LINE
  8
0
  6
CONTINUOUS
 62
     4
 10
-181.38291139240513
 20
-75.294303797468359
 11
-181.38291139240513
 21
-69.294303797468359
  0
LINE
  8
0
  6
CONTINUOUS
 62
     3
 10
-134.38291139240513
 20
-73.294303797468388
 11
-134.38291139240513
 21
-69.294303797468373
  0
LINE
  8
0
  6
CONTINUOUS
 62
     3
 10
-134.38291139240513
 20
-76.294303797468373
 11
-139.38291139240513
 21
-76.294303797468373
  0
LINE
  8
0
  6
CONTINUOUS
 62
     3
 10
-139.38291139240513
 20
-76.294303797468373
 11
-139.38291139240513
 21
-75.294303797468373
  0
LINE
  8
0
  6
CONTINUOUS
 62
     4
 10
-181.38291139240513
 20
 134.8401898734177
 11
-181.38291139240513
 21
 141.84018987341776
  0
LINE
  8
0
  6
CONTINUOUS
 62
     4
 10
-134.38291139240513
 20
 140.84018987341767
 11
-181.38291139240513
 21
 140.8401898734177
  0
LINE
  8
0
  6
CONTINUOUS
 62
     4
 10
-139.38291139240513
 20
 134.84018987341767
 11
-181.38291139240513
 21
 134.8401898734177
  0
LINE
  8
0
  6
CONTINUOUS
 62
     3
 10
-134.38291139240513
 20
 136.84018987341767
 11
-134.38291139240513
 21
 140.84018987341767
  0
LINE
  8
0
  6
CONTINUOUS
 62
     3
 10
-134.38291139240513
 20
 133.84018987341767
 11
-139.38291139240513
 21
 133.84018987341767
  0
LINE
  8
0
  6
CONTINUOUS
 62
     3
 10
-139.38291139240513
 20
 133.84018987341767
 11
-139.38291139240513
 21
 134.84018987341767
  0
LINE
  8
0
  6
CONTINUOUS
 62
     3
 10
-127.17143027390102
 20
 136.84018987341767
 11
-127.17143027390102
 21
 133.84018987341767
  0
LINE
  8
0
  6
CONTINUOUS
 62
     3
 10
-127.17143027390102
 20
 133.84018987341767
 11
-116.38291139240515
 21
 133.84018987341767
  0
LINE
  8
0
  6
CONTINUOUS
 62
     3
 10
-134.38291139240513
 20
 136.84018987341767
 11
-127.17143027390102
 21
 136.84018987341767
  0
LINE
  8
0
  6
CONTINUOUS
 62
     3
 10
-134.38291139240513
 20
 133.84018987341767
 11
-134.38291139240513
 21
 124.84018993464824
  0
LINE
  8
0
  6
CONTINUOUS
 62
     3
 10
-170.88291139240513
 20
 178.84018987341767
 11
-178.17909259408322
 21
 178.84018987341767
  0
LINE
  8
0
  6
CONTINUOUS
 62
     4
 10
-222.23191189240364
 20
-131.59429779746841
 11
-180.23191189240683
 21
-131.59429779746841
  0
LINE
  8
0
  6
CONTINUOUS
 62
     4
 10
-203.73191189240524
 20
-131.59429779746841
 11
-203.73191189240524
 21
-137.59429779746841
  0
LINE
  8
0
  6
CONTINUOUS
 62
     4
 10
-198.73191189240524
 20
-131.59429779746841
 11
-198.73191189240524
 21
-137.59429779746841
  0
LINE
  8
0
  6
CONTINUOUS
 62
     4
 10
-201.73191189240524
 20
-139.59429779746841
 11
-200.73191189240524
 21
-139.59429779746841
  0
LINE
  8
0
  6
CONTINUOUS
 62
     4
 10
-180.23191189240683
 20
-128.09429779746841
 11
-174.23191189240683
 21
-128.09429779746841
  0
LINE
  8
0
  6
CONTINUOUS
 62
     4
 10
-172.23191189240683
 20
-125.09429779746841
 11
-172.23191189240683
 21
-126.09429779746841
  0
ARC
  8
0
  6
CONTINUOUS
 62
     4
 10
-201.73191189240524
 20
-137.59429779746841
 40
 2
 50
 180.00000307046903
 51
-90.000001535234517
  0
ARC
  8
0
  6
CONTINUOUS
 62
     4
 10
-200.73191189240524
 20
-137.59429779746841
 40
 2
 50
-90.000001535234517
 51
 0
  0
ARC
  8
0
  6
CONTINUOUS
 62
     4
 10
-174.23191189240683
 20
-126.09429779746841
 40
 2
 50
-90.000001535234517
 51
 0
  0
LINE
  8
0
  6
CONTINUOUS
 62
     4
 10
-222.23191189240364
 20
-128.09429779746841
 11
-228.23191189240364
 21
-128.09429779746841
  0
ARC
  8
0
  6
CONTINUOUS
 62
     4
 10
-228.23191189240364
 20
-126.09429779746841
 40
 2
 50
 180.00000307046903
 51
-90.000001535234517
  0
LINE
  8
0
  6
CONTINUOUS
 62
     4
 10
-230.23191189240364
 20
-125.09429779746841
 11
-230.23191189240364
 21
-126.09429779746841
  0
LINE
  8
0
  6
CENTER
 62
     7
 10
-201.23191189240524
 20
-135.40277289796279
 11
-201.23191189240524
 21
-139.59429779746841
  0
LINE
  8
0
  6
CENTER
 62
     7
 10
-202.91962419287708
 20
-137.59429779746841
 11
-199.69193953655204
 21
-137.59429779746841
  0
LINE
  8
0
  6
CENTER
 62
     7
 10
-176.42343679191245
 20
-125.59429779746841
 11
-172.23191189240683
 21
-125.59429779746841
  0
LINE
  8
0
  6
CENTER
 62
     7
 10
-174.23191189240683
 20
-127.28201009794024
 11
-174.23191189240683
 21
-124.05432544161523
  0
LINE
  8
0
  6
CENTER
 62
     7
 10
-226.04038699289802
 20
-125.59429779746841
 11
-230.23191189240364
 21
-125.59429779746841
  0
LINE
  8
0
  6
CENTER
 62
     7
 10
-228.23191189240364
 20
-127.28201009794024
 11
-228.23191189240364
 21
-124.05432544161523
  0
LINE
  8
0
  6
CONTINUOUS
 62
     4
 10
-203.23191189240524
 20
-131.59429779746841
 11
-203.23191189240524
 21
-126.59429779746841
  0
LINE
  8
0
  6
CONTINUOUS
 62
     4
 10
-199.23191189240524
 20
-131.59429779746841
 11
-199.23191189240524
 21
-126.59429779746841
  0
ARC
  8
0
  6
CONTINUOUS
 62
     4
 10
-201.23191189240524
 20
-126.59429779746841
 40
 2
 50
 90.000001535234517
 51
 180.00000307046903
  0
ARC
  8
0
  6
CONTINUOUS
 62
     4
 10
-201.23191189240524
 20
-126.59429779746841
 40
 2
 50
 0
 51
 90.000001535234517
  0
ARC
  8
0
  6
CONTINUOUS
 62
     4
 10
-174.23191189240683
 20
-125.09429779746841
 40
 2
 50
 0
 51
 90.000001535234517
  0
ARC
  8
0
  6
CONTINUOUS
 62
     4
 10
-228.23191189240364
 20
-125.09429779746841
 40
 2
 50
 90.000001535234517
 51
 180.00000307046903
  0
LINE
  8
0
  6
CONTINUOUS
 62
     4
 10
-222.23191189240364
 20
-131.59429779746841
 11
-222.23191189240364
 21
-119.59429779746841
  0
LINE
  8
0
  6
CONTINUOUS
 62
     4
 10
-180.23191189240683
 20
-131.59429779746841
 11
-180.23191189240683
 21
-119.59429779746841
  0
LINE
  8
0
  6
CONTINUOUS
 62
     4
 10
-180.23191189240683
 20
-123.09429779746841
 11
-174.23191189240683
 21
-123.09429779746841
  0
LINE
  8
0
  6
CONTINUOUS
 62
     4
 10
-222.23191189240364
 20
-123.09429779746841
 11
-228.23191189240364
 21
-123.09429779746841
  0
INSERT
  8
0
  2
CADWIN-G15
 10
0.0
 20
0.0
  0
LINE
  8
0
  6
CONTINUOUS
 62
     3
 10
-198.88291139240511
 20
 166.8401898734177
 11
-198.38291139240511
 21
 166.3401898734177
  0
ARC
  8
0
  6
CONTINUOUS
 62
     56
 10
-198.38291139240511
 20
 165.3401898734177
 40
 2.5
 50
-90.000001535234517
 51
 90.000001535234517
  0
CIRCLE
  8
0
  6
CONTINUOUS
 62
     56
 10
-190.69541139240513
 20
 165.3401898734177
 40
 2.5
  0
LINE
  8
0
  6
CONTINUOUS
 62
     56
 10
-198.38291139240511
 20
 162.8401898734177
 11
-198.38291139240511
 21
 167.8401898734177
  0
CIRCLE
  8
0
  6
CONTINUOUS
 62
     56
 10
-183.00791139240513
 20
 165.3401898734177
 40
 2.5
  0
LINE
  8
0
  6
CENTER
 62
     7
 10
-182.72856654376554
 20
 161.34018987341776
 11
-183.29999511519412
 21
 169.34018987341776
  0
LINE
  8
0
  6
CENTER
 62
     7
 10
-190.41606654376554
 20
 161.34018987341776
 11
-190.98749511519412
 21
 169.34018987341776
  0
LINE
  8
0
  6
CENTER
 62
     7
 10
-198.38291139240511
 20
 162.8401898734177
 11
-174.43237197129736
 21
 162.8401898734177
  0
LINE
  8
0
  6
CENTER
 62
     7
 10
-177.86317127810347
 20
 167.84018987341764
 11
-198.38291139240511
 21
 167.84018987341767
  0
LINE
  8
0
  6
CENTER
 62
     7
 10
-198.38291139240511
 20
 165.3401898734177
 11
-176.2697076716201
 21
 165.3401898734177
  0
ARC
  8
0
  6
CONTINUOUS
 62
     56
 10
-175.32041139240513
 20
 165.3401898734177
 40
 2.5
 50
 142.81013705797881
 51
-69.193332274458157
  0
LINE
  8
0
  6
CENTER
 62
     7
 10
-83.3401949604756
 20
-27.294303797468384
 11
-68.951275142274852
 21
-27.294303797468384
  0
LINE
  8
0
  6
CENTER
 62
     7
 10
-84.29802356188813
 20
-97.294303797468388
 11
-74.77358762523798
 21
-97.294303797468388
  0
TEXT
  8
218
  6
CONTINUOUS
 62
     96
 10
 219.02073686999069
 20
-16.103850674793865
 11
 231.02073686999071
 21
-16.103850674793854
 40
 6
 41
 1
  1
18
 50
 0.0000000000000495
 72
  5
  0
LINE
  8
218
  6
CONTINUOUS
 62
     7
 10
 216.45206737219627
 20
-7.9941644559531007
 11
 399.39978902953578
 21
-7.9941644559530225
  0
TEXT
  8
220
  6
CONTINUOUS
 62
     96
 10
 234.5908465685205
 20
-16.106714964790896
 11
 270.59084656852048
 21
-16.106714964790896
 40
 6
 41
 1
  1
コンデンサー
 50
 0
 72
  5
  0
TEXT
  8
218
  6
CONTINUOUS
 62
     96
 10
 355.74128955762666
 20
-16.113014088532939
 11
 397.74128955762666
 21
-16.1130140885329
 40
 6
 41
 1
  1
単相モータのみ
 50
 0.0000000000000495
 72
  5
  0
LINE
  8
0
  6
CONTINUOUS
 62
     3
 10
-218.38291139240508
 20
 145.49018987341773
 11
-218.38291139240508
 21
 146.84018987341778
  0
LINE
  8
0
  6
CONTINUOUS
 62
     3
 10
-243.38291139240511
 20
 145.49018987341773
 11
-243.38291139240511
 21
 146.84018987341776
  0
INSERT
  8
0
  2
CADWIN-G16
 10
0.0
 20
0.0
  0
INSERT
  8
0
  2
CADWIN-G17
 10
0.0
 20
0.0
  0
LINE
  8
0
  6
CONTINUOUS
 62
     4
 10
-181.38291139240513
 20
 160.8401898734177
 11
-181.38291139240513
 21
 153.84018987341773
  0
LINE
  8
0
  6
CONTINUOUS
 62
     4
 10
-173.07046444364801
 20
 160.84018987341767
 11
-181.38291139240513
 21
 160.8401898734177
  0
LINE
  8
0
  6
CONTINUOUS
 62
     4
 10
-172.96148595470382
 20
 154.84018987341767
 11
-181.38291139240513
 21
 154.8401898734177
  0
LINE
  8
0
  6
CONTINUOUS
 62
     3
 10
-79.382911392405148
 20
 191.8401898734177
 11
-80.382911392405148
 21
 192.8401898734177
  0
LINE
  8
0
  6
CONTINUOUS
 62
     3
 10
-79.382911392405148
 20
 103.8401898734177
 11
-80.382911392405148
 21
 102.8401898734177
  0
LINE
  8
0
  6
CONTINUOUS
 62
     3
 10
-118.38291139240515
 20
 102.8401898734177
 11
-119.38291139240515
 21
 103.8401898734177
  0
LINE
  8
0
  6
CONTINUOUS
 62
     3
 10
-118.38291139240515
 20
 192.8401898734177
 11
-119.38291139240515
 21
 191.8401898734177
  0
LINE
  8
0
  6
CONTINUOUS
 62
     4
 10
-217.38291139240513
 20
 146.8401898734177
 11
-218.38291139240513
 21
 147.8401898734177
  0
LINE
  8
0
  6
CONTINUOUS
 62
     4
 10
-217.38291139240513
 20
 158.8401898734177
 11
-218.38291139240513
 21
 157.8401898734177
  0
CIRCLE
  8
0
  6
CONTINUOUS
 62
     3
 10
-212.88291139240511
 20
 152.84018987341778
 40
 3.4999999999999716
  0
LINE
  8
0
  6
CONTINUOUS
 62
     3
 10
-215.38291139240502
 20
 157.8401898734177
 11
-215.38291139240505
 21
 155.28967961620097
  0
LINE
  8
0
  6
CONTINUOUS
 62
     3
 10
-215.38291139240505
 20
 150.3907001306346
 11
-215.38291139240502
 21
 147.84018987341787
  0
LINE
  8
0
  6
CONTINUOUS
 62
     4
 10
-216.38291139240502
 20
 158.8401898734177
 11
-215.38291139240502
 21
 157.8401898734177
  0
LINE
  8
0
  6
CONTINUOUS
 62
     4
 10
-216.38291139240502
 20
 146.84018987341787
 11
-215.38291139240502
 21
 147.84018987341787
  0
LINE
  8
0
  6
CONTINUOUS
 62
     3
 10
-210.38291139240519
 20
 157.8401898734177
 11
-210.38291139240516
 21
 155.28967961620097
  0
LINE
  8
0
  6
CONTINUOUS
 62
     4
 10
-209.38291139240519
 20
 158.8401898734177
 11
-210.38291139240519
 21
 157.8401898734177
  0
LINE
  8
0
  6
CONTINUOUS
 62
     3
 10
-210.38291139240516
 20
 150.3907001306346
 11
-210.38291139240519
 21
 147.84018987341787
  0
LINE
  8
0
  6
CONTINUOUS
 62
     4
 10
-209.38291139240519
 20
 146.84018987341787
 11
-210.38291139240519
 21
 147.84018987341787
  0
CIRCLE
  8
0
  6
CONTINUOUS
 62
     3
 10
-248.88291139240511
 20
 152.84018987341778
 40
 3.4999999999999716
  0
LINE
  8
0
  6
CONTINUOUS
 62
     3
 10
-246.38291139240519
 20
 157.8401898734177
 11
-246.38291139240513
 21
 155.28967961620097
  0
LINE
  8
0
  6
CONTINUOUS
 62
     3
 10
-246.38291139240513
 20
 150.3907001306346
 11
-246.38291139240519
 21
 147.84018987341787
  0
LINE
  8
0
  6
CONTINUOUS
 62
     4
 10
-245.38291139240519
 20
 158.8401898734177
 11
-246.38291139240519
 21
 157.8401898734177
  0
LINE
  8
0
  6
CONTINUOUS
 62
     4
 10
-245.38291139240519
 20
 146.84018987341787
 11
-246.38291139240519
 21
 147.84018987341787
  0
LINE
  8
0
  6
CONTINUOUS
 62
     3
 10
-251.38291139240505
 20
 157.8401898734177
 11
-251.38291139240505
 21
 155.28967961620097
  0
LINE
  8
0
  6
CONTINUOUS
 62
     4
 10
-252.38291139240505
 20
 158.8401898734177
 11
-251.38291139240505
 21
 157.8401898734177
  0
LINE
  8
0
  6
CONTINUOUS
 62
     3
 10
-251.38291139240505
 20
 150.3907001306346
 11
-251.38291139240505
 21
 147.84018987341787
  0
LINE
  8
0
  6
CONTINUOUS
 62
     4
 10
-252.38291139240505
 20
 146.84018987341787
 11
-251.38291139240505
 21
 147.84018987341787
  0
CIRCLE
  8
0
  6
CONTINUOUS
 62
     3
 10
-222.38291139240513
 20
 121.3401898734177
 40
 2.75
  0
LINE
  8
0
  6
CONTINUOUS
 62
     3
 10
-220.13291139240513
 20
 119.7590510433335
 11
-220.13291139240513
 21
 116.84018987341773
  0
LINE
  8
0
  6
CONTINUOUS
 62
     3
 10
-220.13291139240513
 20
 122.92132870350116
 11
-220.13291139240513
 21
 125.84018987341773
  0
LINE
  8
0
  6
CONTINUOUS
 62
     3
 10
-224.63291139240513
 20
 119.7590510433335
 11
-224.63291139240513
 21
 116.84018987341773
  0
LINE
  8
0
  6
CONTINUOUS
 62
     3
 10
-224.63291139240513
 20
 122.92132870350116
 11
-224.63291139240513
 21
 125.84018987341773
  0
LINE
  8
0
  6
CONTINUOUS
 62
     3
 10
-244.63291139240511
 20
 119.7590510433335
 11
-244.63291139240511
 21
 116.84018987341773
  0
LINE
  8
0
  6
CONTINUOUS
 62
     3
 10
-244.63291139240511
 20
 122.92132870350116
 11
-244.63291139240511
 21
 125.84018987341773
  0
CIRCLE
  8
0
  6
CONTINUOUS
 62
     3
 10
-242.38291139240511
 20
 121.3401898734177
 40
 2.75
  0
LINE
  8
0
  6
CONTINUOUS
 62
     3
 10
-240.13291139240511
 20
 119.7590510433335
 11
-240.13291139240511
 21
 116.84018987341773
  0
LINE
  8
0
  6
CONTINUOUS
 62
     3
 10
-240.13291139240511
 20
 122.92132870350116
 11
-240.13291139240511
 21
 125.84018987341773
  0
LINE
  8
0
  6
CONTINUOUS
 62
     3
 10
 3.6170886075949511
 20
 171.84018987341767
 11
 3.6170886075949511
 21
 123.84018987341767
  0
LINE
  8
0
  6
CONTINUOUS
 62
     3
 10
 0.6170886075949511
 20
 123.84018987341767
 11
 3.6170886075949511
 21
 123.84018987341767
  0
LINE
  8
0
  6
CONTINUOUS
 62
     3
 10
 3.6170886075949511
 20
 171.84018987341767
 11
 0.6170886075949511
 21
 171.84018987341767
  0
LINE
  8
0
  6
CONTINUOUS
 62
     3
 10
 40.617088607594937
 20
 191.8401898734177
 11
 40.617088607594937
 21
 103.8401898734177
  0
LINE
  8
0
  6
CONTINUOUS
 62
     3
 10
 39.617088607594937
 20
 102.8401898734177
 11
 1.6170886075949369
 21
 102.8401898734177
  0
LINE
  8
0
  6
CONTINUOUS
 62
     3
 10
 1.6170886075949369
 20
 192.8401898734177
 11
 39.617088607594937
 21
 192.8401898734177
  0
LINE
  8
0
  6
CONTINUOUS
 62
     3
 10
 3.6170886075949511
 20
 137.3401898734177
 11
 3.6170886075949511
 21
 147.8401898734177
  0
ARC
  8
0
  6
CONTINUOUS
 62
     3
 10
 1.6170886075949511
 20
 137.3401898734177
 40
 2
 50
-90.000001535234532
 51
-0.000000000000007
  0
LINE
  8
0
  6
CONTINUOUS
 62
     3
 10
 3.7170886075949454
 20
 147.8401898734177
 11
 3.7170886075949454
 21
 123.84018987341767
  0
LINE
  8
0
  6
CONTINUOUS
 62
     3
 10
 3.6170886075949511
 20
 147.8401898734177
 11
 3.6170886075949511
 21
 123.84018987341767
  0
LINE
  8
0
  6
CONTINUOUS
 62
     3
 10
 5.7170886075949454
 20
 123.84018987341767
 11
 5.7170886075949454
 21
 147.8401898734177
  0
LINE
  8
0
  6
CONTINUOUS
 62
     3
 10
 3.7170886075949454
 20
 123.84018987341767
 11
 5.7170886075949454
 21
 123.84018987341767
  0
LINE
  8
0
  6
CONTINUOUS
 62
     3
 10
 0.6170886075949369
 20
 191.8401898734177
 11
 0.6170886075949511
 21
 147.8401898734177
  0
LINE
  8
0
  6
CONTINUOUS
 62
     3
 10
 0.6170886075949369
 20
 120.84018987341767
 11
 0.6170886075949369
 21
 103.8401898734177
  0
LINE
  8
0
  6
CONTINUOUS
 62
     3
 10
 0.6170886075949511
 20
 174.84018987341767
 11
 0.6170886075949369
 21
 147.8401898734177
  0
LINE
  8
0
  6
CONTINUOUS
 62
     3
 10
 0.6170886075949511
 20
 123.84018987341767
 11
 0.6170886075949511
 21
 120.84018987341767
  0
LINE
  8
0
  6
CONTINUOUS
 62
     3
 10
 27.617088607594965
 20
 147.8401898734177
 11
 27.617088607594852
 21
 135.3401898734177
  0
LINE
  8
0
  6
CONTINUOUS
 62
     3
 10
 10.717088607594846
 20
 135.3401898734177
 11
 27.617088607594852
 21
 135.3401898734177
  0
LINE
  8
0
  6
CONTINUOUS
 62
     3
 10
 27.617088607594852
 20
 135.3401898734177
 11
 28.617088607594852
 21
 147.8401898734177
  0
LINE
  8
0
  6
CONTINUOUS
 62
     3
 10
 10.717088607594945
 20
 131.8401898734177
 11
 5.7170886075949454
 21
 131.8401898734177
  0
LINE
  8
0
  6
CONTINUOUS
 62
     3
 10
 10.717088607594945
 20
 131.8401898734177
 11
 10.717088607594945
 21
 135.3401898734177
  0
LINE
  8
0
  6
CONTINUOUS
 62
     3
 10
 5.7170886075948459
 20
 143.8401898734177
 11
 14.617088607594852
 21
 143.8401898734177
  0
LINE
  8
0
  6
CONTINUOUS
 62
     3
 10
 6.2170886075948459
 20
 138.84018987341773
 11
 6.2170886075948459
 21
 143.8401898734177
  0
ARC
  8
0
  6
CONTINUOUS
 62
     3
 10
 8.2170886075948459
 20
 138.84018987341773
 40
 2
 50
 180.00000307046903
 51
-90.000001535234532
  0
LINE
  8
0
  6
CONTINUOUS
 62
     3
 10
 23.217088607594846
 20
 138.3401898734177
 11
 15.217088607594844
 21
 138.34018987341773
  0
LINE
  8
0
  6
CONTINUOUS
 62
     3
 10
 15.217088607594844
 20
 136.84018987341773
 11
 8.2170886075948459
 21
 136.84018987341773
  0
LINE
  8
0
  6
CONTINUOUS
 62
     3
 10
 15.217088607594844
 20
 136.84018987341773
 11
 15.217088607594844
 21
 138.34018987341776
  0
LINE
  8
0
  6
CONTINUOUS
 62
     3
 10
 6.2170886075948459
 20
 143.5901898734177
 11
 10.217088607594846
 21
 143.5901898734177
  0
LINE
  8
0
  6
CONTINUOUS
 62
     3
 10
 10.217088607594846
 20
 143.8401898734177
 11
 10.217088607594846
 21
 143.5901898734177
  0
LINE
  8
0
  6
CONTINUOUS
 62
     3
 10
 10.217088607594846
 20
 143.8401898734177
 11
 19.217088607594846
 21
 143.8401898734177
  0
LINE
  8
0
  6
CONTINUOUS
 62
     3
 10
 6.2170886075948459
 20
 140.3401898734177
 11
 5.9670886075948459
 21
 140.3401898734177
  0
LINE
  8
0
  6
CONTINUOUS
 62
     3
 10
 5.9670886075948459
 20
 141.3401898734177
 11
 6.2170886075948459
 21
 141.3401898734177
  0
LINE
  8
0
  6
CONTINUOUS
 62
     3
 10
 5.7170886075948459
 20
 141.0901898734177
 11
 5.7170886075948459
 21
 140.5901898734177
  0
ARC
  8
0
  6
CONTINUOUS
 62
     3
 10
 5.9670886075948459
 20
 141.0901898734177
 40
 0.25
 50
 90.000001535234517
 51
 180.00000307046903
  0
ARC
  8
0
  6
CONTINUOUS
 62
     3
 10
 5.9670886075948459
 20
 140.5901898734177
 40
 0.25
 50
 180.00000307046903
 51
-90.000001535234517
  0
LINE
  8
0
  6
CONTINUOUS
 62
     3
 10
 23.217088607594846
 20
 138.3401898734177
 11
 23.217088607594846
 21
 147.8401898734177
  0
LINE
  8
0
  6
CONTINUOUS
 62
     3
 10
 19.217088607594846
 20
 147.8401898734177
 11
 19.217088607594846
 21
 143.8401898734177
  0
LINE
  8
0
  6
CONTINUOUS
 62
     3
 10
 14.717088607594844
 20
 143.8401898734177
 11
 14.717088607594844
 21
 147.8401898734177
  0
LINE
  8
0
  6
CONTINUOUS
 62
     3
 10
 14.717088607594844
 20
 144.3401898734177
 11
 19.217088607594846
 21
 144.3401898734177
  0
LINE
  8
0
  6
CONTINUOUS
 62
     3
 10
 40.617088607594937
 20
 191.8401898734177
 11
 39.617088607594937
 21
 192.8401898734177
  0
LINE
  8
0
  6
CONTINUOUS
 62
     3
 10
 40.617088607594937
 20
 103.8401898734177
 11
 39.617088607594937
 21
 102.8401898734177
  0
LINE
  8
0
  6
CONTINUOUS
 62
     3
 10
 1.6170886075949369
 20
 102.8401898734177
 11
 0.6170886075949369
 21
 103.8401898734177
  0
LINE
  8
0
  6
CONTINUOUS
 62
     3
 10
 1.6170886075949369
 20
 192.8401898734177
 11
 0.6170886075949369
 21
 191.8401898734177
  0
LINE
  8
0
  6
CONTINUOUS
 62
     3
 10
 1.6170886075949511
 20
 135.3401898734177
 11
-0.8829113924050489
 21
 135.3401898734177
  0
LINE
  8
0
  6
CONTINUOUS
 62
     3
 10
-0.8829113924050489
 20
 135.3401898734177
 11
-0.8829113924050205
 21
 147.8401898734177
  0
LINE
  8
0
  6
CENTER
 62
     7
 10
 20.617088607594937
 20
 213.11135284810126
 11
 20.617088607594951
 21
 82.049050632911388
  0
CIRCLE
  8
0
  6
CONTINUOUS
 62
     3
 10
-74.63417405087597
 20
 172.58892721494686
 40
 7.5
  0
ARC
  8
0
  6
CENTER
 62
     7
 10
-99.382911392405163
 20
 147.8401898734177
 40
 35
 50
 27.375657266671084
 51
 62.162689976090583
  0
LINE
  8
0
  6
CENTER
 62
     7
 10
-82.643977040480024
 20
 164.57912422534278
 11
-67.350616905759694
 21
 179.87248436006308
  0
CIRCLE
  8
0
  6
CONTINUOUS
 62
     3
 10
-124.13164873393431
 20
 172.58892721494686
 40
 7.5
  0
ARC
  8
0
  6
CENTER
 62
     7
 10
-99.382911392405163
 20
 147.8401898734177
 40
 35
 50
 117.83731309437842
 51
 152.62434580379795
  0
LINE
  8
0
  6
CENTER
 62
     7
 10
-116.12184574433024
 20
 164.57912422534278
 11
-131.41520587905055
 21
 179.87248436006308
  0
ARC
  8
0
  6
CONTINUOUS
 62
     3
 10
-99.382911392405163
 20
 147.8401898734177
 40
 47.5
 50
 0
 51
 180.00000307046903
  0
LINE
  8
0
  6
CONTINUOUS
 62
     3
 10
-119.38291139240515
 20
 191.8401898734177
 11
-119.38291139240515
 21
 190.92440972245294
  0
LINE
  8
0
  6
CONTINUOUS
 62
     3
 10
-79.382911392405148
 20
 191.8401898734177
 11
-79.382911392405148
 21
 190.92440972245291
  0
LINE
  8
0
  6
CONTINUOUS
 62
     3
 10
-79.382911392405148
 20
 147.8401898734177
 11
-79.382911392405148
 21
 103.8401898734177
  0
LINE
  8
0
  6
CONTINUOUS
 62
     3
 10
-136.38291139240516
 20
 180.84018987341767
 11
-133.5479520041182
 21
 180.84018987341767
  0
LINE
  8
0
  6
CONTINUOUS
 62
     3
 10
-136.38291139240516
 20
 180.84018987341767
 11
-136.38291139240516
 21
 177.62693189063066
  0
LINE
  8
0
  6
CONTINUOUS
 62
     3
 10
-118.38291139240515
 20
 192.8401898734177
 11
-114.58981771815071
 21
 192.8401898734177
  0
LINE
  8
0
  6
CONTINUOUS
 62
     3
 10
-84.176005066659613
 20
 192.8401898734177
 11
-80.382911392405148
 21
 192.8401898734177
  0
LINE
  8
0
  6
CONTINUOUS
 62
     176
 10
-39.909266218354446
 20
 147.8401898734177
 11
-175.79902091358284
 21
 147.84018987341767
  0
ARC
  8
0
  6
CONTINUOUS
 62
     3
 10
 20.617088607594937
 20
 147.84018987341773
 40
 12.500000000000007
 50
 0
 51
 180.00000307046903
  0
ARC
  8
0
  6
CONTINUOUS
 62
     3
 10
 20.617088607594937
 20
 147.84018987341773
 40
 5.4999999999998508
 50
 0
 51
 180.00000307046903
  0
ARC
  8
0
  6
CONTINUOUS
 62
     3
 10
 20.617088607594937
 20
 147.84018987341773
 40
 2.9999999999998934
 50
 0
 51
 180.00000307046903
  0
ARC
  8
0
  6
CONTINUOUS
 62
     3
 10
 20.617088607594937
 20
 147.84018987341773
 40
 1.9999999999998579
 50
-0.0000000000008142
 51
 180.00000307046903
  0
LINE
  8
0
  6
CENTER
 62
     7
 10
 35.70197643811197
 20
 182.8401898734177
 11
 45.22641237476212
 21
 182.8401898734177
  0
LINE
  8
0
  6
CENTER
 62
     7
 10
 35.701976438111956
 20
 112.8401898734177
 11
 45.226412374762106
 21
 112.8401898734177
  0
LINE
  8
0
  6
CENTER
 62
     7
 10
-84.29802356188813
 20
 112.8401898734177
 11
-74.77358762523798
 21
 112.8401898734177
  0
LINE
  8
0
  6
CONTINUOUS
 62
     176
 10
-18.401107594936789
 20
 147.84018987341773
 11
 57.223892405063189
 21
 147.84018987341773
  0
ARC
  8
0
  6
CONTINUOUS
 62
     3
 10
-99.382911392405163
 20
 147.8401898734177
 40
 23.000000000000085
 50
 0
 51
 180.00000307046903
  0
ARC
  8
0
  6
CONTINUOUS
 62
     56
 10
-99.382911392405163
 20
 147.8401898734177
 40
 19.750000000000014
 50
 0
 51
 180.00000307046903
  0
ARC
  8
0
  6
CONTINUOUS
 62
     56
 10
-99.382911392405163
 20
 147.8401898734177
 40
 20.250000000000014
 50
 0
 51
 180.00000307046903
  0
ARC
  8
0
  6
CONTINUOUS
 62
     56
 10
-99.382911392405163
 20
 147.8401898734177
 40
 16.249999999999972
 50
 0
 51
 180.00000307046903
  0
ARC
  8
0
  6
CONTINUOUS
 62
     56
 10
-99.382911392405163
 20
 147.8401898734177
 40
 15.749999999999972
 50
 0
 51
 180.00000307046903
  0
ARC
  8
0
  6
CONTINUOUS
 62
     56
 10
-99.382911392405163
 20
 147.84018987341767
 40
 7.4999999999999298
 50
 0
 51
 180.00000307046903
  0
ARC
  8
0
  6
CONTINUOUS
 62
     56
 10
-99.382911392405163
 20
 147.84018987341767
 40
 2.9999999999999716
 50
 0
 51
 180.00000307046903
  0
LINE
  8
0
  6
CENTER
 62
     7
 10
-230.88291139240511
 20
 143.84018987341773
 11
-230.88291139240511
 21
 232.75946078722984
  0
LINE
  8
5
  6
CONTINUOUS
 62
     4
 10
-254.36965501640572
 20
-50.405414908578493
 11
-259.22552385474421
 21
-50.405414908579459
  0
LINE
  8
5
  6
CONTINUOUS
 62
     4
 10
-268.39616776840433
 20
-50.405414908578457
 11
-263.54029893006577
 21
-50.405414908579459
  0
ARC
  8
5
  6
CONTINUOUS
 62
     4
 10
-261.38291139240516
 20
-51.294303797468359
 40
 2.3333333333333335
 50
 0
 51
 180.00000307046903
  0
LINE
  8
0
  6
CONTINUOUS
 62
     4
 10
-265.66534352337408
 20
-50.405414908579246
 11
-265.66534352337408
 21
-51.294303797468359
  0
ARC
  8
5
  6
CONTINUOUS
 62
     4
 10
-268.39616776840467
 20
-51.294303797468238
 40
 0.8888888888888888
 50
 90.000001535223078
 51
 180.00000307046903
  0
ARC
  8
5
  6
CONTINUOUS
 62
     4
 10
-254.36965501640535
 20
-51.294303797468238
 40
 0.8888888888888888
 50
 0
 51
 90.000001535245886
  0
LINE
  8
0
  6
CONTINUOUS
 62
     4
 10
-257.10047926143613
 20
-50.405414908579246
 11
-257.10047926143613
 21
-51.294303797468359
  0
INSERT
  8
0
  2
CADWIN-G18
 10
0.0
 20
0.0
  0
LINE
  8
0
  6
CONTINUOUS
 62
     4
 10
-272.45151207533451
 20
 141.0901898734177
 11
-242.57916284512871
 21
 141.0901898734177
  0
LINE
  8
0
  6
CONTINUOUS
 62
     4
 10
-272.52098092476149
 20
 134.5901898734177
 11
-242.57916284512871
 21
 134.5901898734177
  0
LINE
  8
0
  6
CONTINUOUS
 62
     3
 10
-267.38291139240511
 20
 125.84018987341776
 11
-267.38291139240511
 21
 134.5901898734177
  0
LINE
  8
0
  6
CONTINUOUS
 62
     3
 10
-267.38291139240511
 20
 141.0901898734177
 11
-267.38291139240511
 21
 169.84018987341767
  0
LINE
  8
0
  6
CONTINUOUS
 62
     3
 10
-79.382911392405148
 20
-32.294303797468388
 11
-73.982911392405143
 21
-32.29430379746838
  0
LINE
  8
0
  6
CONTINUOUS
 62
     3
 10
-73.982911392405143
 20
-32.29430379746838
 11
-73.382911392405148
 21
-31.255073312927067
  0
LINE
  8
0
  6
CONTINUOUS
 62
     3
 10
-73.982911392405143
 20
-32.29430379746838
 11
-73.982911392405143
 21
-22.294303797468388
  0
LINE
  8
0
  6
CONTINUOUS
 62
     3
 10
-79.382911392405148
 20
-22.294303797468384
 11
-73.982911392405143
 21
-22.294303797468388
  0
LINE
  8
0
  6
CONTINUOUS
 62
     3
 10
-73.982911392405143
 20
-22.294303797468388
 11
-73.382911392405148
 21
-23.333534282009708
  0
LINE
  8
0
  6
CONTINUOUS
 62
     3
 10
-73.382911392405148
 20
-31.255073312927067
 11
-73.382911392405148
 21
-23.333534282009708
  0
LINE
  8
0
  6
CONTINUOUS
 62
     3
 10
-264.38291139240511
 20
 172.84018987341767
 11
-259.38291139240516
 21
 172.84018987341767
  0
ARC
  8
0
  6
CONTINUOUS
 62
     3
 10
-264.38291139240511
 20
 169.84018987341767
 40
 3
 50
 90.000001535234517
 51
 180.00000307046903
  0
LINE
  8
0
  6
CONTINUOUS
 62
     3
 10
-254.38291139240513
 20
 177.84018987341767
 11
-254.38291139240513
 21
 202.8401898734177
  0
ARC
  8
0
  6
CONTINUOUS
 62
     3
 10
-259.38291139240516
 20
 177.84018987341767
 40
 5
 50
-90.000001535234517
 51
 0
  0
LINE
  8
5
  6
CONTINUOUS
 62
     4
 10
-264.63624472573849
 20
 97.936856540084278
 11
-258.12957805907183
 21
 97.936856540084278
  0
LINE
  8
5
  6
CONTINUOUS
 62
     4
 10
-258.12957805907183
 20
 97.936856540084278
 11
-258.12957805907183
 21
 98.736856540084275
  0
LINE
  8
5
  6
CONTINUOUS
 62
     4
 10
-264.63624472573849
 20
 97.936856540084278
 11
-264.63624472573849
 21
 98.736856540084275
  0
LINE
  8
5
  6
CONTINUOUS
 62
     4
 10
-264.71624472573859
 20
 98.736856540084275
 11
-258.04957805907191
 21
 98.736856540084275
  0
LINE
  8
5
  6
CONTINUOUS
 62
     4
 10
-258.04957805907191
 20
 98.736856540084275
 11
-258.04957805907191
 21
 99.590189873417685
  0
LINE
  8
5
  6
CONTINUOUS
 62
     4
 10
-264.71624472573859
 20
 98.736856540084275
 11
-264.71624472573859
 21
 99.590189873417685
  0
LINE
  8
5
  6
CONTINUOUS
 62
     4
 10
-264.71624472573859
 20
 99.590189873417685
 11
-258.04957805907191
 21
 99.590189873417685
  0
LINE
  8
5
  6
CONTINUOUS
 62
     4
 10
-264.18291139240523
 20
 97.936856540084278
 11
-264.18291139240523
 21
 97.285127540498053
  0
ARC
  8
5
  6
CONTINUOUS
 62
     4
 10
-262.9562447257386
 20
 97.285127540498053
 40
 1.2266666666666666
 50
 180.00000307046898
 51
-104.60399205417235
  0
ARC
  8
5
  6
CONTINUOUS
 62
     4
 10
-261.38291139240522
 20
 103.32352320675102
 40
 7.4666666666666659
 50
-104.60399205417235
 51
-75.39601101629674
  0
ARC
  8
5
  6
CONTINUOUS
 62
     4
 10
-259.8095780590719
 20
 97.285127540498053
 40
 1.2266666666666666
 50
-75.39601101629674
 51
-0.000000000000014
  0
LINE
  8
5
  6
CONTINUOUS
 62
     4
 10
-258.58291139240526
 20
 97.285127540498053
 11
-258.58291139240526
 21
 97.936856540084278
  0
LINE
  8
5
  6
CONTINUOUS
 62
     4
 10
-259.38291139240522
 20
 99.590189873417685
 11
-259.38291139240414
 21
 134.5901898734177
  0
LINE
  8
5
  6
CONTINUOUS
 62
     4
 10
-263.38291139240522
 20
 99.590189873417685
 11
-263.38291139240522
 21
 134.5901898734177
  0
LINE
  8
5
  6
CONTINUOUS
 62
     4
 10
-262.37658361893796
 20
 95.974476985914819
 11
-266.52182994956786
 21
 90.877170318560445
  0
LINE
  8
5
  6
CONTINUOUS
 62
     4
 10
-270.83549461046664
 20
 91.193155908201504
 11
-269.14407510555623
 21
 96.021487396503403
  0
LINE
  8
5
  6
CONTINUOUS
 62
     4
 10
-266.79454985627865
 20
 97.801275483880445
 11
-264.63624472573849
 21
 97.936856540084278
  0
ARC
  8
5
  6
CONTINUOUS
 62
     4
 10
-266.62736393791567
 20
 95.139854814423586
 40
 2.6666666666666665
 50
 93.594501816672718
 51
 160.69406388949318
  0
LINE
  8
5
  6
CONTINUOUS
 62
     4
 10
-267.34939203091295
 20
 90.483496058459892
 11
-270.33215237693776
 21
 90.483496058452261
  0
ARC
  8
5
  6
CONTINUOUS
 62
     4
 10
-270.3321523769385
 20
 91.016829391785578
 40
 0.5333333333333333
 50
 160.69406388949415
 51
-90.000001535148982
  0
ARC
  8
5
  6
CONTINUOUS
 62
     4
 10
-267.34939203091403
 20
 91.550162725126555
 40
 1.0666666666666667
 50
-90.000001535169844
 51
-39.118798441337724
  0
LINE
  8
5
  6
CONTINUOUS
 62
     4
 10
-260.38923916587265
 20
 95.974476985914819
 11
-256.24399283524281
 21
 90.877170318560317
  0
LINE
  8
5
  6
CONTINUOUS
 62
     4
 10
-251.930328174344
 20
 91.193155908201376
 11
-253.62174767925438
 21
 96.021487396503403
  0
LINE
  8
5
  6
CONTINUOUS
 62
     4
 10
-255.97127292853196
 20
 97.801275483880445
 11
-258.12957805907206
 21
 97.936856540084278
  0
ARC
  8
5
  6
CONTINUOUS
 62
     4
 10
-256.13845884689499
 20
 95.139854814423586
 40
 2.6666666666666665
 50
 19.305939180975717
 51
 86.405501253796231
  0
LINE
  8
5
  6
CONTINUOUS
 62
     4
 10
-255.41643075389769
 20
 90.483496058459778
 11
-252.43367040787288
 21
 90.483496058452133
  0
ARC
  8
5
  6
CONTINUOUS
 62
     4
 10
-252.43367040787211
 20
 91.016829391785464
 40
 0.5333333333333333
 50
-90.000001535320166
 51
 19.305939180974754
  0
ARC
  8
5
  6
CONTINUOUS
 62
     4
 10
-255.41643075389661
 20
 91.550162725126441
 40
 1.0666666666666667
 50
-140.88120462913145
 51
-90.000001535299248
  0
LINE
  8
5
  6
CENTER
 62
     7
 10
-261.38291139240528
 20
 87.174942299923913
 11
-261.38291139240516
 21
 134.5901898734177
  0
LINE
  8
0
  6
CONTINUOUS
 62
     4
 10
-263.38291139240522
 20
 134.5901898734177
 11
-259.38291139240414
 21
 134.5901898734177
  0
LINE
  8
0
  6
CONTINUOUS
 62
     3
 10
-276.38291139240516
 20
 116.8401898734177
 11
-263.38291139240522
 21
 116.8401898734177
  0
LINE
  8
0
  6
CONTINUOUS
 62
     3
 10
-259.38291139240522
 20
 116.8401898734177
 11
-255.38291139240513
 21
 116.8401898734177
  0
LINE
  8
0
  6
CONTINUOUS
 62
     3
 10
-255.38291139240511
 20
 122.84018987341776
 11
-259.38291139240522
 21
 122.84018987341776
  0
LINE
  8
0
  6
CONTINUOUS
 62
     3
 10
-263.38291139240522
 20
 122.84018987341776
 11
-264.38291139240511
 21
 122.84018987341776
  0
INSERT
  8
0
  2
CADWIN-G19
 10
0.0
 20
0.0
  0
INSERT
  8
0
  2
CADWIN-G20
 10
0.0
 20
0.0
  0
INSERT
  8
0
  2
CADWIN-G21
 10
0.0
 20
0.0
  0
INSERT
  8
0
  2
CADWIN-G22
 10
0.0
 20
0.0
  0
INSERT
  8
0
  2
CADWIN-G23
 10
0.0
 20
0.0
  0
INSERT
  8
0
  2
CADWIN-G24
 10
0.0
 20
0.0
  0
INSERT
  8
0
  2
CADWIN-G25
 10
0.0
 20
0.0
  0
INSERT
  8
0
  2
CADWIN-G26
 10
0.0
 20
0.0
  0
INSERT
  8
0
  2
CADWIN-G27
 10
0.0
 20
0.0
  0
LINE
  8
0
  6
CONTINUOUS
 62
     2
 10
-318.05232026305373
 20
 154.8401898734177
 11
-307.05232026305379
 21
 154.8401898734177
  0
LINE
  8
0
  6
CONTINUOUS
 62
     2
 10
-317.05232026305373
 20
 154.3401898734177
 11
-308.05232026305379
 21
 154.3401898734177
  0
LINE
  8
0
  6
CONTINUOUS
 62
     2
 10
-316.05232026305373
 20
 153.8401898734177
 11
-309.05232026305379
 21
 153.8401898734177
  0
LINE
  8
0
  6
CONTINUOUS
 62
     2
 10
-315.05232026305373
 20
 153.3401898734177
 11
-310.05232026305379
 21
 153.3401898734177
  0
LINE
  8
0
  6
CONTINUOUS
 62
     2
 10
-314.05232026305373
 20
 152.8401898734177
 11
-310.05232026305379
 21
 152.8401898734177
  0
INSERT
  8
0
  2
CADWIN-G28
 10
0.0
 20
0.0
  0
INSERT
  8
0
  2
CADWIN-G29
 10
0.0
 20
0.0
  0
INSERT
  8
0
  2
CADWIN-G30
 10
0.0
 20
0.0
  0
INSERT
  8
0
  2
CADWIN-G31
 10
0.0
 20
0.0
  0
INSERT
  8
0
  2
CADWIN-G32
 10
0.0
 20
0.0
  0
INSERT
  8
0
  2
CADWIN-G33
 10
0.0
 20
0.0
  0
INSERT
  8
0
  2
CADWIN-G34
 10
0.0
 20
0.0
  0
LINE
  8
0
  6
CONTINUOUS
 62
     3
 10
-127.17143027390102
 20
-73.294303797468388
 11
-127.17143027390102
 21
-68.294303797468373
  0
LINE
  8
0
  6
CONTINUOUS
 62
     3
 10
-134.38291139240513
 20
-69.294303797468373
 11
-134.38291139240513
 21
-68.294303797468373
  0
LINE
  8
0
  6
CENTER
 62
     7
 10
-134.38291139240513
 20
-68.294303797468373
 11
-127.17143027390102
 21
-73.294303797468388
  0
LINE
  8
0
  6
CENTER
 62
     7
 10
-134.38291139240513
 20
-73.294303797468388
 11
-127.17143027390102
 21
-68.294303797468373
  0
LINE
  8
0
  6
CONTINUOUS
 62
     3
 10
-127.17143027390105
 20
 136.84018987341767
 11
-127.17143027390105
 21
 141.84018987341767
  0
LINE
  8
0
  6
CONTINUOUS
 62
     3
 10
-134.38291139240516
 20
 140.84018987341767
 11
-134.38291139240516
 21
 141.84018987341767
  0
LINE
  8
0
  6
CENTER
 62
     7
 10
-134.38291139240516
 20
 141.84018987341767
 11
-127.17143027390105
 21
 136.84018987341767
  0
LINE
  8
0
  6
CENTER
 62
     7
 10
-134.38291139240516
 20
 136.84018987341767
 11
-127.17143027390105
 21
 141.84018987341767
  0
INSERT
  8
0
  2
CADWIN-G35
 10
0.0
 20
0.0
  0
TEXT
  8
218
  6
CONTINUOUS
 62
     96
 10
 312.65063775910664
 20
-26.053309213169562
 11
 328.85063775910669
 21
-26.053309213169548
 40
 5.4000000000000004
 41
 1
  1
NBR
 50
 0.0000000000000495
 72
  5
  0
LINE
  8
0
  6
CENTER
 62
     7
 10
 35.70197643811187
 20
-97.294303797468416
 11
 45.22641237476202
 21
-97.294303797468416
  0
LINE
  8
0
  6
CENTER
 62
     7
 10
 35.701976438111885
 20
-27.294303797468416
 11
 45.226412374762035
 21
-27.294303797468416
  0
LINE
  8
0
  6
CENTER
 62
     7
 10
-316.88291139240511
 20
-44.930062819130789
 11
-316.88291139240511
 21
-56.794303797468359
  0
ARC
  8
0
  6
CONTINUOUS
 62
     4
 10
-316.88291139240511
 20
-51.294303797468352
 40
 2.5
 50
 0
 51
 180.00000307046903
  0
INSERT
  8
0
  2
CADWIN-G36
 10
0.0
 20
0.0
  0
TEXT
  8
218
  6
CONTINUOUS
 62
     96
 10
 343.04769380990069
 20
-16.113014088533003
 11
 349.04769380990069
 21
-16.113014088532996
 40
 6
 41
 1
  1
1
 50
 0.0000000000000495
 72
  5
  0
LINE
  8
0
  6
CENTER
 62
     7
 10
-175.79902091358284
 20
 147.84018987341767
 11
-287.88291139240511
 21
 147.84018987341767
  0
ENDSEC
  0
EOF
